ISO-10303-21;
HEADER;
FILE_DESCRIPTION((''),'2;1');
FILE_NAME('27103_PAP2-5_2A','2019-07-18T',('Christian Carl'),(''),
'CREO PARAMETRIC BY PTC INC, 2016380','CREO PARAMETRIC BY PTC INC, 2016380','');
FILE_SCHEMA(('CONFIG_CONTROL_DESIGN'));
ENDSEC;
DATA;
#2=CARTESIAN_POINT('',(0.E0,1.49E1,1.5E0));
#3=DIRECTION('',(0.E0,0.E0,1.E0));
#4=DIRECTION('',(0.E0,1.E0,0.E0));
#5=AXIS2_PLACEMENT_3D('',#2,#3,#4);
#7=CARTESIAN_POINT('',(0.E0,1.49E1,1.5E0));
#8=DIRECTION('',(0.E0,0.E0,1.E0));
#9=DIRECTION('',(0.E0,-1.E0,0.E0));
#10=AXIS2_PLACEMENT_3D('',#7,#8,#9);
#12=CARTESIAN_POINT('',(2.395E1,8.E-1,1.5E0));
#13=DIRECTION('',(0.E0,0.E0,1.E0));
#14=DIRECTION('',(1.184237892934E-14,-1.E0,0.E0));
#15=AXIS2_PLACEMENT_3D('',#12,#13,#14);
#17=DIRECTION('',(1.E0,0.E0,0.E0));
#18=VECTOR('',#17,4.79E1);
#19=CARTESIAN_POINT('',(-2.395E1,5.E-1,1.5E0));
#20=LINE('',#19,#18);
#21=CARTESIAN_POINT('',(-2.395E1,8.E-1,1.5E0));
#22=DIRECTION('',(0.E0,0.E0,1.E0));
#23=DIRECTION('',(-1.E0,0.E0,0.E0));
#24=AXIS2_PLACEMENT_3D('',#21,#22,#23);
#26=DIRECTION('',(0.E0,1.E0,0.E0));
#27=VECTOR('',#26,1.639476348052E1);
#28=CARTESIAN_POINT('',(-2.425E1,8.E-1,1.5E0));
#29=LINE('',#28,#27);
#30=CARTESIAN_POINT('',(-2.395E1,1.719476348052E1,1.5E0));
#31=DIRECTION('',(0.E0,0.E0,-1.E0));
#32=DIRECTION('',(-1.E0,0.E0,0.E0));
#33=AXIS2_PLACEMENT_3D('',#30,#31,#32);
#35=DIRECTION('',(3.489949670250E-2,9.993908270191E-1,0.E0));
#36=VECTOR('',#35,1.171237137967E1);
#37=CARTESIAN_POINT('',(-2.424981724811E1,1.720523332953E1,1.5E0));
#38=LINE('',#37,#36);
#39=CARTESIAN_POINT('',(-2.354124413366E1,2.89E1,1.5E0));
#40=DIRECTION('',(0.E0,0.E0,1.E0));
#41=DIRECTION('',(0.E0,1.E0,0.E0));
#42=AXIS2_PLACEMENT_3D('',#39,#40,#41);
#44=DIRECTION('',(-1.E0,0.E0,0.E0));
#45=VECTOR('',#44,4.708248826731E1);
#46=CARTESIAN_POINT('',(2.354124413366E1,2.92E1,1.5E0));
#47=LINE('',#46,#45);
#48=CARTESIAN_POINT('',(2.354124413366E1,2.89E1,1.5E0));
#49=DIRECTION('',(0.E0,0.E0,1.E0));
#50=DIRECTION('',(9.993908270191E-1,3.489949670250E-2,0.E0));
#51=AXIS2_PLACEMENT_3D('',#48,#49,#50);
#53=DIRECTION('',(3.489949670250E-2,-9.993908270191E-1,0.E0));
#54=VECTOR('',#53,1.171237137967E1);
#55=CARTESIAN_POINT('',(2.384106138176E1,2.891046984901E1,1.5E0));
#56=LINE('',#55,#54);
#57=CARTESIAN_POINT('',(2.395E1,1.719476348052E1,1.5E0));
#58=DIRECTION('',(0.E0,0.E0,-1.E0));
#59=DIRECTION('',(9.993908270191E-1,3.489949670263E-2,0.E0));
#60=AXIS2_PLACEMENT_3D('',#57,#58,#59);
#62=DIRECTION('',(0.E0,1.E0,0.E0));
#63=VECTOR('',#62,1.639476348052E1);
#64=CARTESIAN_POINT('',(2.425E1,8.E-1,1.5E0));
#65=LINE('',#64,#63);
#66=CARTESIAN_POINT('',(0.E0,1.49E1,1.E0));
#67=DIRECTION('',(0.E0,0.E0,1.E0));
#68=DIRECTION('',(0.E0,1.E0,0.E0));
#69=AXIS2_PLACEMENT_3D('',#66,#67,#68);
#71=DIRECTION('',(0.E0,-7.071067811865E-1,7.071067811865E-1));
#72=VECTOR('',#71,7.071067811865E-1);
#73=CARTESIAN_POINT('',(0.E0,1.34E1,1.E0));
#74=LINE('',#73,#72);
#75=CARTESIAN_POINT('',(0.E0,1.49E1,1.E0));
#76=DIRECTION('',(0.E0,0.E0,-1.E0));
#77=DIRECTION('',(0.E0,1.E0,0.E0));
#78=AXIS2_PLACEMENT_3D('',#75,#76,#77);
#80=DIRECTION('',(0.E0,7.071067811865E-1,7.071067811866E-1));
#81=VECTOR('',#80,7.071067811865E-1);
#82=CARTESIAN_POINT('',(0.E0,1.64E1,1.E0));
#83=LINE('',#82,#81);
#84=DIRECTION('',(0.E0,0.E0,1.E0));
#85=VECTOR('',#84,1.5E0);
#86=CARTESIAN_POINT('',(2.425E1,8.E-1,0.E0));
#87=LINE('',#86,#85);
#88=DIRECTION('',(0.E0,0.E0,1.E0));
#89=VECTOR('',#88,1.5E0);
#90=CARTESIAN_POINT('',(2.425E1,1.719476348052E1,0.E0));
#91=LINE('',#90,#89);
#92=DIRECTION('',(0.E0,-1.E0,0.E0));
#93=VECTOR('',#92,1.639476348052E1);
#94=CARTESIAN_POINT('',(2.425E1,1.719476348052E1,0.E0));
#95=LINE('',#94,#93);
#96=DIRECTION('',(0.E0,0.E0,1.E0));
#97=VECTOR('',#96,1.5E0);
#98=CARTESIAN_POINT('',(2.424981724811E1,1.720523332953E1,0.E0));
#99=LINE('',#98,#97);
#100=DIRECTION('',(0.E0,0.E0,-1.E0));
#101=VECTOR('',#100,1.5E0);
#102=CARTESIAN_POINT('',(2.384106138176E1,2.891046984901E1,1.5E0));
#103=LINE('',#102,#101);
#104=DIRECTION('',(3.489949670250E-2,-9.993908270191E-1,0.E0));
#105=VECTOR('',#104,1.171237137967E1);
#106=CARTESIAN_POINT('',(2.384106138176E1,2.891046984901E1,0.E0));
#107=LINE('',#106,#105);
#108=CARTESIAN_POINT('',(2.395E1,8.E-1,0.E0));
#109=DIRECTION('',(0.E0,0.E0,-1.E0));
#110=DIRECTION('',(1.E0,0.E0,0.E0));
#111=AXIS2_PLACEMENT_3D('',#108,#109,#110);
#113=CARTESIAN_POINT('',(2.395E1,1.719476348052E1,0.E0));
#114=DIRECTION('',(0.E0,0.E0,1.E0));
#115=DIRECTION('',(1.E0,0.E0,0.E0));
#116=AXIS2_PLACEMENT_3D('',#113,#114,#115);
#118=CARTESIAN_POINT('',(2.354124413366E1,2.89E1,0.E0));
#119=DIRECTION('',(0.E0,0.E0,-1.E0));
#120=DIRECTION('',(0.E0,1.E0,0.E0));
#121=AXIS2_PLACEMENT_3D('',#118,#119,#120);
#123=DIRECTION('',(-1.E0,0.E0,0.E0));
#124=VECTOR('',#123,4.708248826731E1);
#125=CARTESIAN_POINT('',(2.354124413366E1,2.92E1,0.E0));
#126=LINE('',#125,#124);
#127=CARTESIAN_POINT('',(-2.354124413366E1,2.89E1,0.E0));
#128=DIRECTION('',(0.E0,0.E0,-1.E0));
#129=DIRECTION('',(-9.993908270191E-1,3.489949670251E-2,0.E0));
#130=AXIS2_PLACEMENT_3D('',#127,#128,#129);
#132=CARTESIAN_POINT('',(-2.395E1,1.719476348052E1,0.E0));
#133=DIRECTION('',(0.E0,0.E0,1.E0));
#134=DIRECTION('',(-9.993908270191E-1,3.489949670249E-2,0.E0));
#135=AXIS2_PLACEMENT_3D('',#132,#133,#134);
#137=CARTESIAN_POINT('',(-2.395E1,8.E-1,0.E0));
#138=DIRECTION('',(0.E0,0.E0,-1.E0));
#139=DIRECTION('',(0.E0,-1.E0,0.E0));
#140=AXIS2_PLACEMENT_3D('',#137,#138,#139);
#142=DIRECTION('',(1.E0,0.E0,0.E0));
#143=VECTOR('',#142,4.79E1);
#144=CARTESIAN_POINT('',(-2.395E1,5.E-1,0.E0));
#145=LINE('',#144,#143);
#146=DIRECTION('',(0.E0,0.E0,-1.E0));
#147=VECTOR('',#146,1.5E0);
#148=CARTESIAN_POINT('',(2.354124413366E1,2.92E1,1.5E0));
#149=LINE('',#148,#147);
#150=DIRECTION('',(0.E0,0.E0,1.E0));
#151=VECTOR('',#150,1.5E0);
#152=CARTESIAN_POINT('',(-2.354124413366E1,2.92E1,0.E0));
#153=LINE('',#152,#151);
#154=DIRECTION('',(0.E0,0.E0,1.E0));
#155=VECTOR('',#154,1.5E0);
#156=CARTESIAN_POINT('',(-2.384106138176E1,2.891046984901E1,0.E0));
#157=LINE('',#156,#155);
#158=DIRECTION('',(0.E0,0.E0,-1.E0));
#159=VECTOR('',#158,1.5E0);
#160=CARTESIAN_POINT('',(-2.424981724811E1,1.720523332953E1,1.5E0));
#161=LINE('',#160,#159);
#162=DIRECTION('',(3.489949670250E-2,9.993908270191E-1,0.E0));
#163=VECTOR('',#162,1.171237137967E1);
#164=CARTESIAN_POINT('',(-2.424981724811E1,1.720523332953E1,0.E0));
#165=LINE('',#164,#163);
#166=DIRECTION('',(0.E0,0.E0,-1.E0));
#167=VECTOR('',#166,1.5E0);
#168=CARTESIAN_POINT('',(-2.425E1,1.719476348052E1,1.5E0));
#169=LINE('',#168,#167);
#170=DIRECTION('',(0.E0,0.E0,-1.E0));
#171=VECTOR('',#170,1.5E0);
#172=CARTESIAN_POINT('',(-2.425E1,8.E-1,1.5E0));
#173=LINE('',#172,#171);
#174=DIRECTION('',(0.E0,1.E0,0.E0));
#175=VECTOR('',#174,1.639476348052E1);
#176=CARTESIAN_POINT('',(-2.425E1,8.E-1,0.E0));
#177=LINE('',#176,#175);
#178=DIRECTION('',(0.E0,0.E0,1.E0));
#179=VECTOR('',#178,1.5E0);
#180=CARTESIAN_POINT('',(2.395E1,5.E-1,0.E0));
#181=LINE('',#180,#179);
#182=DIRECTION('',(0.E0,0.E0,-1.E0));
#183=VECTOR('',#182,1.5E0);
#184=CARTESIAN_POINT('',(-2.395E1,5.E-1,1.5E0));
#185=LINE('',#184,#183);
#186=CARTESIAN_POINT('',(2.395E1,5.E-1,1.5E0));
#187=CARTESIAN_POINT('',(2.425E1,8.E-1,1.5E0));
#188=VERTEX_POINT('',#186);
#189=VERTEX_POINT('',#187);
#190=CARTESIAN_POINT('',(2.425E1,8.E-1,0.E0));
#191=VERTEX_POINT('',#190);
#192=CARTESIAN_POINT('',(2.395E1,5.E-1,0.E0));
#193=VERTEX_POINT('',#192);
#194=CARTESIAN_POINT('',(2.425E1,1.719476348052E1,0.E0));
#195=CARTESIAN_POINT('',(2.425E1,1.719476348052E1,1.5E0));
#196=VERTEX_POINT('',#194);
#197=VERTEX_POINT('',#195);
#198=CARTESIAN_POINT('',(2.424981724811E1,1.720523332953E1,1.5E0));
#199=VERTEX_POINT('',#198);
#200=CARTESIAN_POINT('',(2.424981724811E1,1.720523332953E1,0.E0));
#201=VERTEX_POINT('',#200);
#202=CARTESIAN_POINT('',(2.354124413366E1,2.92E1,0.E0));
#203=CARTESIAN_POINT('',(2.384106138176E1,2.891046984901E1,0.E0));
#204=VERTEX_POINT('',#202);
#205=VERTEX_POINT('',#203);
#206=CARTESIAN_POINT('',(2.384106138176E1,2.891046984901E1,1.5E0));
#207=VERTEX_POINT('',#206);
#208=CARTESIAN_POINT('',(2.354124413366E1,2.92E1,1.5E0));
#209=VERTEX_POINT('',#208);
#210=CARTESIAN_POINT('',(-2.354124413366E1,2.92E1,1.5E0));
#211=CARTESIAN_POINT('',(-2.384106138176E1,2.891046984901E1,1.5E0));
#212=VERTEX_POINT('',#210);
#213=VERTEX_POINT('',#211);
#214=CARTESIAN_POINT('',(-2.384106138176E1,2.891046984901E1,0.E0));
#215=VERTEX_POINT('',#214);
#216=CARTESIAN_POINT('',(-2.354124413366E1,2.92E1,0.E0));
#217=VERTEX_POINT('',#216);
#218=CARTESIAN_POINT('',(-2.425E1,1.719476348052E1,1.5E0));
#219=CARTESIAN_POINT('',(-2.425E1,1.719476348052E1,0.E0));
#220=VERTEX_POINT('',#218);
#221=VERTEX_POINT('',#219);
#222=CARTESIAN_POINT('',(-2.424981724811E1,1.720523332953E1,0.E0));
#223=VERTEX_POINT('',#222);
#224=CARTESIAN_POINT('',(-2.424981724811E1,1.720523332953E1,1.5E0));
#225=VERTEX_POINT('',#224);
#226=CARTESIAN_POINT('',(-2.395E1,5.E-1,0.E0));
#227=CARTESIAN_POINT('',(-2.425E1,8.E-1,0.E0));
#228=VERTEX_POINT('',#226);
#229=VERTEX_POINT('',#227);
#230=CARTESIAN_POINT('',(-2.425E1,8.E-1,1.5E0));
#231=VERTEX_POINT('',#230);
#232=CARTESIAN_POINT('',(-2.395E1,5.E-1,1.5E0));
#233=VERTEX_POINT('',#232);
#234=CARTESIAN_POINT('',(0.E0,1.64E1,1.E0));
#235=CARTESIAN_POINT('',(0.E0,1.34E1,1.E0));
#236=VERTEX_POINT('',#234);
#237=VERTEX_POINT('',#235);
#238=CARTESIAN_POINT('',(0.E0,1.69E1,1.5E0));
#239=CARTESIAN_POINT('',(0.E0,1.29E1,1.5E0));
#240=VERTEX_POINT('',#238);
#241=VERTEX_POINT('',#239);
#242=CARTESIAN_POINT('',(0.E0,0.E0,1.5E0));
#243=DIRECTION('',(0.E0,0.E0,1.E0));
#244=DIRECTION('',(1.E0,0.E0,0.E0));
#245=AXIS2_PLACEMENT_3D('',#242,#243,#244);
#246=PLANE('',#245);
#248=ORIENTED_EDGE('',*,*,#247,.F.);
#250=ORIENTED_EDGE('',*,*,#249,.F.);
#252=ORIENTED_EDGE('',*,*,#251,.F.);
#254=ORIENTED_EDGE('',*,*,#253,.T.);
#256=ORIENTED_EDGE('',*,*,#255,.T.);
#258=ORIENTED_EDGE('',*,*,#257,.T.);
#260=ORIENTED_EDGE('',*,*,#259,.F.);
#262=ORIENTED_EDGE('',*,*,#261,.F.);
#264=ORIENTED_EDGE('',*,*,#263,.F.);
#266=ORIENTED_EDGE('',*,*,#265,.T.);
#268=ORIENTED_EDGE('',*,*,#267,.T.);
#270=ORIENTED_EDGE('',*,*,#269,.F.);
#271=EDGE_LOOP('',(#248,#250,#252,#254,#256,#258,#260,#262,#264,#266,#268,
#270));
#272=FACE_OUTER_BOUND('',#271,.F.);
#274=ORIENTED_EDGE('',*,*,#273,.T.);
#276=ORIENTED_EDGE('',*,*,#275,.T.);
#277=EDGE_LOOP('',(#274,#276));
#278=FACE_BOUND('',#277,.F.);
#279=ADVANCED_FACE('',(#272,#278),#246,.T.);
#280=CARTESIAN_POINT('',(0.E0,1.49E1,1.25E0));
#281=DIRECTION('',(0.E0,0.E0,1.E0));
#282=DIRECTION('',(0.E0,1.E0,0.E0));
#283=AXIS2_PLACEMENT_3D('',#280,#281,#282);
#284=CONICAL_SURFACE('',#283,1.75E0,4.5E1);
#285=ORIENTED_EDGE('',*,*,#273,.F.);
#287=ORIENTED_EDGE('',*,*,#286,.F.);
#289=ORIENTED_EDGE('',*,*,#288,.T.);
#291=ORIENTED_EDGE('',*,*,#290,.T.);
#292=EDGE_LOOP('',(#285,#287,#289,#291));
#293=FACE_OUTER_BOUND('',#292,.F.);
#294=ADVANCED_FACE('',(#293),#284,.F.);
#295=CARTESIAN_POINT('',(0.E0,1.49E1,1.25E0));
#296=DIRECTION('',(0.E0,0.E0,1.E0));
#297=DIRECTION('',(0.E0,1.E0,0.E0));
#298=AXIS2_PLACEMENT_3D('',#295,#296,#297);
#299=CONICAL_SURFACE('',#298,1.75E0,4.5E1);
#300=ORIENTED_EDGE('',*,*,#275,.F.);
#301=ORIENTED_EDGE('',*,*,#290,.F.);
#303=ORIENTED_EDGE('',*,*,#302,.F.);
#304=ORIENTED_EDGE('',*,*,#286,.T.);
#305=EDGE_LOOP('',(#300,#301,#303,#304));
#306=FACE_OUTER_BOUND('',#305,.F.);
#307=ADVANCED_FACE('',(#306),#299,.F.);
#308=CARTESIAN_POINT('',(0.E0,1.49E1,1.E0));
#309=DIRECTION('',(0.E0,0.E0,1.E0));
#310=DIRECTION('',(0.E0,1.E0,0.E0));
#311=AXIS2_PLACEMENT_3D('',#308,#309,#310);
#312=PLANE('',#311);
#313=ORIENTED_EDGE('',*,*,#302,.T.);
#314=ORIENTED_EDGE('',*,*,#288,.F.);
#315=EDGE_LOOP('',(#313,#314));
#316=FACE_OUTER_BOUND('',#315,.F.);
#317=ADVANCED_FACE('',(#316),#312,.T.);
#318=CARTESIAN_POINT('',(2.395E1,8.E-1,-7.7144E0));
#319=DIRECTION('',(0.E0,0.E0,1.E0));
#320=DIRECTION('',(1.184237892934E-14,-1.E0,0.E0));
#321=AXIS2_PLACEMENT_3D('',#318,#319,#320);
#322=CYLINDRICAL_SURFACE('',#321,3.E-1);
#323=ORIENTED_EDGE('',*,*,#247,.T.);
#325=ORIENTED_EDGE('',*,*,#324,.F.);
#327=ORIENTED_EDGE('',*,*,#326,.T.);
#329=ORIENTED_EDGE('',*,*,#328,.T.);
#330=EDGE_LOOP('',(#323,#325,#327,#329));
#331=FACE_OUTER_BOUND('',#330,.F.);
#332=ADVANCED_FACE('',(#331),#322,.T.);
#333=CARTESIAN_POINT('',(2.425E1,1.72E1,-2.9E0));
#334=DIRECTION('',(-1.E0,0.E0,0.E0));
#335=DIRECTION('',(0.E0,-1.E0,0.E0));
#336=AXIS2_PLACEMENT_3D('',#333,#334,#335);
#337=PLANE('',#336);
#338=ORIENTED_EDGE('',*,*,#324,.T.);
#339=ORIENTED_EDGE('',*,*,#269,.T.);
#341=ORIENTED_EDGE('',*,*,#340,.F.);
#343=ORIENTED_EDGE('',*,*,#342,.T.);
#344=EDGE_LOOP('',(#338,#339,#341,#343));
#345=FACE_OUTER_BOUND('',#344,.F.);
#346=ADVANCED_FACE('',(#345),#337,.F.);
#347=CARTESIAN_POINT('',(2.395E1,1.719476348052E1,-7.7144E0));
#348=DIRECTION('',(0.E0,0.E0,1.E0));
#349=DIRECTION('',(1.E0,0.E0,0.E0));
#350=AXIS2_PLACEMENT_3D('',#347,#348,#349);
#351=CYLINDRICAL_SURFACE('',#350,3.E-1);
#352=ORIENTED_EDGE('',*,*,#340,.T.);
#353=ORIENTED_EDGE('',*,*,#267,.F.);
#355=ORIENTED_EDGE('',*,*,#354,.F.);
#357=ORIENTED_EDGE('',*,*,#356,.F.);
#358=EDGE_LOOP('',(#352,#353,#355,#357));
#359=FACE_OUTER_BOUND('',#358,.F.);
#360=ADVANCED_FACE('',(#359),#351,.T.);
#361=CARTESIAN_POINT('',(2.383095076610E1,2.92E1,-2.9E0));
#362=DIRECTION('',(-9.993908270191E-1,-3.489949670250E-2,0.E0));
#363=DIRECTION('',(3.489949670250E-2,-9.993908270191E-1,0.E0));
#364=AXIS2_PLACEMENT_3D('',#361,#362,#363);
#365=PLANE('',#364);
#366=ORIENTED_EDGE('',*,*,#354,.T.);
#367=ORIENTED_EDGE('',*,*,#265,.F.);
#369=ORIENTED_EDGE('',*,*,#368,.T.);
#371=ORIENTED_EDGE('',*,*,#370,.T.);
#372=EDGE_LOOP('',(#366,#367,#369,#371));
#373=FACE_OUTER_BOUND('',#372,.F.);
#374=ADVANCED_FACE('',(#373),#365,.F.);
#375=CARTESIAN_POINT('',(2.354124413366E1,2.89E1,6.7144E0));
#376=DIRECTION('',(0.E0,0.E0,-1.E0));
#377=DIRECTION('',(0.E0,1.E0,0.E0));
#378=AXIS2_PLACEMENT_3D('',#375,#376,#377);
#379=CYLINDRICAL_SURFACE('',#378,3.E-1);
#381=ORIENTED_EDGE('',*,*,#380,.T.);
#382=ORIENTED_EDGE('',*,*,#368,.F.);
#383=ORIENTED_EDGE('',*,*,#263,.T.);
#385=ORIENTED_EDGE('',*,*,#384,.T.);
#386=EDGE_LOOP('',(#381,#382,#383,#385));
#387=FACE_OUTER_BOUND('',#386,.F.);
#388=ADVANCED_FACE('',(#387),#379,.T.);
#389=CARTESIAN_POINT('',(0.E0,0.E0,0.E0));
#390=DIRECTION('',(0.E0,0.E0,1.E0));
#391=DIRECTION('',(1.E0,0.E0,0.E0));
#392=AXIS2_PLACEMENT_3D('',#389,#390,#391);
#393=PLANE('',#392);
#394=ORIENTED_EDGE('',*,*,#326,.F.);
#395=ORIENTED_EDGE('',*,*,#342,.F.);
#396=ORIENTED_EDGE('',*,*,#356,.T.);
#397=ORIENTED_EDGE('',*,*,#370,.F.);
#398=ORIENTED_EDGE('',*,*,#380,.F.);
#400=ORIENTED_EDGE('',*,*,#399,.T.);
#402=ORIENTED_EDGE('',*,*,#401,.F.);
#404=ORIENTED_EDGE('',*,*,#403,.F.);
#406=ORIENTED_EDGE('',*,*,#405,.T.);
#408=ORIENTED_EDGE('',*,*,#407,.F.);
#410=ORIENTED_EDGE('',*,*,#409,.F.);
#412=ORIENTED_EDGE('',*,*,#411,.T.);
#413=EDGE_LOOP('',(#394,#395,#396,#397,#398,#400,#402,#404,#406,#408,#410,
#412));
#414=FACE_OUTER_BOUND('',#413,.F.);
#415=ADVANCED_FACE('',(#414),#393,.F.);
#416=CARTESIAN_POINT('',(3.568095076610E1,2.92E1,0.E0));
#417=DIRECTION('',(0.E0,1.E0,0.E0));
#418=DIRECTION('',(-1.E0,0.E0,0.E0));
#419=AXIS2_PLACEMENT_3D('',#416,#417,#418);
#420=PLANE('',#419);
#421=ORIENTED_EDGE('',*,*,#384,.F.);
#422=ORIENTED_EDGE('',*,*,#261,.T.);
#424=ORIENTED_EDGE('',*,*,#423,.F.);
#425=ORIENTED_EDGE('',*,*,#399,.F.);
#426=EDGE_LOOP('',(#421,#422,#424,#425));
#427=FACE_OUTER_BOUND('',#426,.F.);
#428=ADVANCED_FACE('',(#427),#420,.T.);
#429=CARTESIAN_POINT('',(-2.354124413366E1,2.89E1,-7.7144E0));
#430=DIRECTION('',(0.E0,0.E0,1.E0));
#431=DIRECTION('',(0.E0,1.E0,0.E0));
#432=AXIS2_PLACEMENT_3D('',#429,#430,#431);
#433=CYLINDRICAL_SURFACE('',#432,3.E-1);
#434=ORIENTED_EDGE('',*,*,#259,.T.);
#436=ORIENTED_EDGE('',*,*,#435,.F.);
#437=ORIENTED_EDGE('',*,*,#401,.T.);
#438=ORIENTED_EDGE('',*,*,#423,.T.);
#439=EDGE_LOOP('',(#434,#436,#437,#438));
#440=FACE_OUTER_BOUND('',#439,.F.);
#441=ADVANCED_FACE('',(#440),#433,.T.);
#442=CARTESIAN_POINT('',(-2.425E1,1.72E1,-2.9E0));
#443=DIRECTION('',(9.993908270191E-1,-3.489949670250E-2,0.E0));
#444=DIRECTION('',(3.489949670250E-2,9.993908270191E-1,0.E0));
#445=AXIS2_PLACEMENT_3D('',#442,#443,#444);
#446=PLANE('',#445);
#447=ORIENTED_EDGE('',*,*,#435,.T.);
#448=ORIENTED_EDGE('',*,*,#257,.F.);
#450=ORIENTED_EDGE('',*,*,#449,.T.);
#451=ORIENTED_EDGE('',*,*,#403,.T.);
#452=EDGE_LOOP('',(#447,#448,#450,#451));
#453=FACE_OUTER_BOUND('',#452,.F.);
#454=ADVANCED_FACE('',(#453),#446,.F.);
#455=CARTESIAN_POINT('',(-2.395E1,1.719476348052E1,6.7144E0));
#456=DIRECTION('',(0.E0,0.E0,-1.E0));
#457=DIRECTION('',(-1.E0,0.E0,0.E0));
#458=AXIS2_PLACEMENT_3D('',#455,#456,#457);
#459=CYLINDRICAL_SURFACE('',#458,3.E-1);
#461=ORIENTED_EDGE('',*,*,#460,.T.);
#462=ORIENTED_EDGE('',*,*,#405,.F.);
#463=ORIENTED_EDGE('',*,*,#449,.F.);
#464=ORIENTED_EDGE('',*,*,#255,.F.);
#465=EDGE_LOOP('',(#461,#462,#463,#464));
#466=FACE_OUTER_BOUND('',#465,.F.);
#467=ADVANCED_FACE('',(#466),#459,.T.);
#468=CARTESIAN_POINT('',(-2.425E1,0.E0,-2.9E0));
#469=DIRECTION('',(1.E0,0.E0,0.E0));
#470=DIRECTION('',(0.E0,1.E0,0.E0));
#471=AXIS2_PLACEMENT_3D('',#468,#469,#470);
#472=PLANE('',#471);
#473=ORIENTED_EDGE('',*,*,#460,.F.);
#474=ORIENTED_EDGE('',*,*,#253,.F.);
#476=ORIENTED_EDGE('',*,*,#475,.T.);
#477=ORIENTED_EDGE('',*,*,#407,.T.);
#478=EDGE_LOOP('',(#473,#474,#476,#477));
#479=FACE_OUTER_BOUND('',#478,.F.);
#480=ADVANCED_FACE('',(#479),#472,.F.);
#481=CARTESIAN_POINT('',(-2.395E1,8.E-1,6.7144E0));
#482=DIRECTION('',(0.E0,0.E0,-1.E0));
#483=DIRECTION('',(0.E0,-1.E0,0.E0));
#484=AXIS2_PLACEMENT_3D('',#481,#482,#483);
#485=CYLINDRICAL_SURFACE('',#484,3.E-1);
#486=ORIENTED_EDGE('',*,*,#409,.T.);
#487=ORIENTED_EDGE('',*,*,#475,.F.);
#488=ORIENTED_EDGE('',*,*,#251,.T.);
#490=ORIENTED_EDGE('',*,*,#489,.T.);
#491=EDGE_LOOP('',(#486,#487,#488,#490));
#492=FACE_OUTER_BOUND('',#491,.F.);
#493=ADVANCED_FACE('',(#492),#485,.T.);
#494=CARTESIAN_POINT('',(-3.61E1,5.E-1,0.E0));
#495=DIRECTION('',(0.E0,-1.E0,0.E0));
#496=DIRECTION('',(1.E0,0.E0,0.E0));
#497=AXIS2_PLACEMENT_3D('',#494,#495,#496);
#498=PLANE('',#497);
#499=ORIENTED_EDGE('',*,*,#328,.F.);
#500=ORIENTED_EDGE('',*,*,#411,.F.);
#501=ORIENTED_EDGE('',*,*,#489,.F.);
#502=ORIENTED_EDGE('',*,*,#249,.T.);
#503=EDGE_LOOP('',(#499,#500,#501,#502));
#504=FACE_OUTER_BOUND('',#503,.F.);
#505=ADVANCED_FACE('',(#504),#498,.T.);
#506=CLOSED_SHELL('',(#279,#294,#307,#317,#332,#346,#360,#374,#388,#415,#428,
#441,#454,#467,#480,#493,#505));
#507=MANIFOLD_SOLID_BREP('',#506);
#509=DIMENSIONAL_EXPONENTS(0.E0,0.E0,0.E0,0.E0,0.E0,0.E0,0.E0);
#511=PLANE_ANGLE_MEASURE_WITH_UNIT(PLANE_ANGLE_MEASURE(1.745329251994E-2),#510);
#512=(CONVERSION_BASED_UNIT('DEGREE',#511)NAMED_UNIT(*)PLANE_ANGLE_UNIT());
#514=UNCERTAINTY_MEASURE_WITH_UNIT(LENGTH_MEASURE(1.2E-3),#508,'closure',
'Maximum model space distance between geometric entities at asserted connectivities');
#515=(GEOMETRIC_REPRESENTATION_CONTEXT(3)GLOBAL_UNCERTAINTY_ASSIGNED_CONTEXT((
#514))GLOBAL_UNIT_ASSIGNED_CONTEXT((#508,#512,#513))REPRESENTATION_CONTEXT
('ID1','3'));
#517=APPLICATION_CONTEXT(
'CONFIGURATION CONTROLLED 3D DESIGNS OF MECHANICAL PARTS AND ASSEMBLIES');
#518=APPLICATION_PROTOCOL_DEFINITION('international standard',
'config_control_design',1994,#517);
#519=DESIGN_CONTEXT('',#517,'design');
#520=MECHANICAL_CONTEXT('',#517,'mechanical');
#521=PRODUCT('27103_PAP2-5_2A','27103_PAP2-5_2A','NOT SPECIFIED',(#520));
#522=PRODUCT_DEFINITION_FORMATION_WITH_SPECIFIED_SOURCE('122','LAST_VERSION',
#521,.MADE.);
#526=PRODUCT_CATEGORY('part','');
#527=PRODUCT_RELATED_PRODUCT_CATEGORY('detail','',(#521));
#528=PRODUCT_CATEGORY_RELATIONSHIP('','',#526,#527);
#529=SECURITY_CLASSIFICATION_LEVEL('unclassified');
#530=SECURITY_CLASSIFICATION('','',#529);
#531=CC_DESIGN_SECURITY_CLASSIFICATION(#530,(#522));
#532=APPROVAL_STATUS('approved');
#533=APPROVAL(#532,'');
#534=CC_DESIGN_APPROVAL(#533,(#530,#522,#523));
#535=CALENDAR_DATE(119,18,7);
#536=COORDINATED_UNIVERSAL_TIME_OFFSET(2,0,.AHEAD.);
#537=LOCAL_TIME(10,6,5.2E1,#536);
#538=DATE_AND_TIME(#535,#537);
#539=APPROVAL_DATE_TIME(#538,#533);
#540=DATE_TIME_ROLE('creation_date');
#541=CC_DESIGN_DATE_AND_TIME_ASSIGNMENT(#538,#540,(#523));
#542=DATE_TIME_ROLE('classification_date');
#543=CC_DESIGN_DATE_AND_TIME_ASSIGNMENT(#538,#542,(#530));
#544=PERSON('UNSPECIFIED','UNSPECIFIED',$,$,$,$);
#545=ORGANIZATION('UNSPECIFIED','UNSPECIFIED','UNSPECIFIED');
#546=PERSON_AND_ORGANIZATION(#544,#545);
#547=APPROVAL_ROLE('approver');
#548=APPROVAL_PERSON_ORGANIZATION(#546,#533,#547);
#549=PERSON_AND_ORGANIZATION_ROLE('creator');
#550=CC_DESIGN_PERSON_AND_ORGANIZATION_ASSIGNMENT(#546,#549,(#522,#523));
#551=PERSON_AND_ORGANIZATION_ROLE('design_supplier');
#552=CC_DESIGN_PERSON_AND_ORGANIZATION_ASSIGNMENT(#546,#551,(#522));
#553=PERSON_AND_ORGANIZATION_ROLE('classification_officer');
#554=CC_DESIGN_PERSON_AND_ORGANIZATION_ASSIGNMENT(#546,#553,(#530));
#555=PERSON_AND_ORGANIZATION_ROLE('design_owner');
#556=CC_DESIGN_PERSON_AND_ORGANIZATION_ASSIGNMENT(#546,#555,(#521));
#6=CIRCLE('',#5,2.E0);
#11=CIRCLE('',#10,2.E0);
#16=CIRCLE('',#15,3.E-1);
#25=CIRCLE('',#24,3.E-1);
#34=CIRCLE('',#33,3.E-1);
#43=CIRCLE('',#42,3.E-1);
#52=CIRCLE('',#51,3.E-1);
#61=CIRCLE('',#60,3.E-1);
#70=CIRCLE('',#69,1.5E0);
#79=CIRCLE('',#78,1.5E0);
#112=CIRCLE('',#111,3.E-1);
#117=CIRCLE('',#116,3.E-1);
#122=CIRCLE('',#121,3.E-1);
#131=CIRCLE('',#130,3.E-1);
#136=CIRCLE('',#135,3.E-1);
#141=CIRCLE('',#140,3.E-1);
#247=EDGE_CURVE('',#188,#189,#16,.T.);
#249=EDGE_CURVE('',#233,#188,#20,.T.);
#251=EDGE_CURVE('',#231,#233,#25,.T.);
#253=EDGE_CURVE('',#231,#220,#29,.T.);
#255=EDGE_CURVE('',#220,#225,#34,.T.);
#257=EDGE_CURVE('',#225,#213,#38,.T.);
#259=EDGE_CURVE('',#212,#213,#43,.T.);
#261=EDGE_CURVE('',#209,#212,#47,.T.);
#263=EDGE_CURVE('',#207,#209,#52,.T.);
#265=EDGE_CURVE('',#207,#199,#56,.T.);
#267=EDGE_CURVE('',#199,#197,#61,.T.);
#269=EDGE_CURVE('',#189,#197,#65,.T.);
#273=EDGE_CURVE('',#240,#241,#6,.T.);
#275=EDGE_CURVE('',#241,#240,#11,.T.);
#286=EDGE_CURVE('',#236,#240,#83,.T.);
#288=EDGE_CURVE('',#236,#237,#70,.T.);
#290=EDGE_CURVE('',#237,#241,#74,.T.);
#302=EDGE_CURVE('',#236,#237,#79,.T.);
#324=EDGE_CURVE('',#191,#189,#87,.T.);
#326=EDGE_CURVE('',#191,#193,#112,.T.);
#328=EDGE_CURVE('',#193,#188,#181,.T.);
#340=EDGE_CURVE('',#196,#197,#91,.T.);
#342=EDGE_CURVE('',#196,#191,#95,.T.);
#354=EDGE_CURVE('',#201,#199,#99,.T.);
#356=EDGE_CURVE('',#196,#201,#117,.T.);
#368=EDGE_CURVE('',#207,#205,#103,.T.);
#370=EDGE_CURVE('',#205,#201,#107,.T.);
#380=EDGE_CURVE('',#204,#205,#122,.T.);
#384=EDGE_CURVE('',#209,#204,#149,.T.);
#399=EDGE_CURVE('',#204,#217,#126,.T.);
#401=EDGE_CURVE('',#215,#217,#131,.T.);
#403=EDGE_CURVE('',#223,#215,#165,.T.);
#405=EDGE_CURVE('',#223,#221,#136,.T.);
#407=EDGE_CURVE('',#229,#221,#177,.T.);
#409=EDGE_CURVE('',#228,#229,#141,.T.);
#411=EDGE_CURVE('',#228,#193,#145,.T.);
#423=EDGE_CURVE('',#217,#212,#153,.T.);
#435=EDGE_CURVE('',#215,#213,#157,.T.);
#449=EDGE_CURVE('',#225,#223,#161,.T.);
#460=EDGE_CURVE('',#220,#221,#169,.T.);
#475=EDGE_CURVE('',#231,#229,#173,.T.);
#489=EDGE_CURVE('',#233,#228,#185,.T.);
#508=(LENGTH_UNIT()NAMED_UNIT(*)SI_UNIT(.MILLI.,.METRE.));
#510=(NAMED_UNIT(*)PLANE_ANGLE_UNIT()SI_UNIT($,.RADIAN.));
#513=(NAMED_UNIT(*)SI_UNIT($,.STERADIAN.)SOLID_ANGLE_UNIT());
#516=ADVANCED_BREP_SHAPE_REPRESENTATION('',(#507),#515);
#523=PRODUCT_DEFINITION('design','',#522,#519);
#524=PRODUCT_DEFINITION_SHAPE('','SHAPE FOR 27103_PAP2-5_2A.',#523);
#525=SHAPE_DEFINITION_REPRESENTATION(#524,#516);
ENDSEC;
END-ISO-10303-21;
