ISO-10303-21;
HEADER;
/* Generated by software containing ST-Developer
 * from STEP Tools, Inc. (www.steptools.com) 
 */
/* OPTION: using custom schema-name function */

FILE_DESCRIPTION(
/* description */ (''),
/* implementation_level */ '2;1');

FILE_NAME(
/* name */ '28516_4_KDS-Inlay-1.stp',
/* time_stamp */ '2022-11-29T11:39:26+01:00',
/* author */ (''),
/* organization */ (''),
/* preprocessor_version */ 'ST-DEVELOPER v16.7',
/* originating_system */ 'SIEMENS PLM Software NX 12.0',
/* authorisation */ '');

FILE_SCHEMA (('AUTOMOTIVE_DESIGN { 1 0 10303 214 3 1 1 1 }'));
ENDSEC;

DATA;
#10=SHAPE_REPRESENTATION_RELATIONSHIP('None',
'relationship between 28516_4_KDS-Inlay-1-None and 28516_4_KDS-Inlay-1
-None',#22,#11);
#11=ADVANCED_BREP_SHAPE_REPRESENTATION('28516_4_KDS-Inlay-1-None',(#32),
#319);
#12=SHAPE_DEFINITION_REPRESENTATION(#13,#22);
#13=PRODUCT_DEFINITION_SHAPE('','',#14);
#14=PRODUCT_DEFINITION(' ','',#16,#15);
#15=PRODUCT_DEFINITION_CONTEXT('part definition',#21,'design');
#16=PRODUCT_DEFINITION_FORMATION_WITH_SPECIFIED_SOURCE(' ',' ',#18,
 .NOT_KNOWN.);
#17=PRODUCT_RELATED_PRODUCT_CATEGORY('part','',(#18));
#18=PRODUCT('28516_4_KDS-Inlay-1','28516_4_KDS-Inlay-1',' ',(#19));
#19=PRODUCT_CONTEXT(' ',#21,'mechanical');
#20=APPLICATION_PROTOCOL_DEFINITION('international standard',
'automotive_design',2010,#21);
#21=APPLICATION_CONTEXT(
'core data for automotive mechanical design processes');
#22=SHAPE_REPRESENTATION('28516_4_KDS-Inlay-1-None',(#210),#319);
#23=PRESENTATION_LAYER_ASSIGNMENT('1','Layer 1',(#32));
#24=STYLED_ITEM('',(#25),#32);
#25=PRESENTATION_STYLE_ASSIGNMENT((#26));
#26=SURFACE_STYLE_USAGE(.BOTH.,#27);
#27=SURFACE_SIDE_STYLE('',(#28));
#28=SURFACE_STYLE_FILL_AREA(#29);
#29=FILL_AREA_STYLE('',(#30));
#30=FILL_AREA_STYLE_COLOUR('',#31);
#31=COLOUR_RGB('Medium Steel',0.596063172350652,0.666666666666667,0.686259250782025);
#32=MANIFOLD_SOLID_BREP('',#33);
#33=CLOSED_SHELL('',(#34,#35,#36,#37,#38,#39,#40,#41,#42,#43));
#34=ADVANCED_FACE('',(#54),#44,.T.);
#35=ADVANCED_FACE('',(#55),#45,.T.);
#36=ADVANCED_FACE('',(#56),#46,.T.);
#37=ADVANCED_FACE('',(#57),#47,.T.);
#38=ADVANCED_FACE('',(#58),#48,.T.);
#39=ADVANCED_FACE('',(#59),#49,.T.);
#40=ADVANCED_FACE('',(#60),#50,.T.);
#41=ADVANCED_FACE('',(#61),#51,.T.);
#42=ADVANCED_FACE('',(#62),#52,.T.);
#43=ADVANCED_FACE('',(#63),#53,.T.);
#44=PLANE('',#211);
#45=PLANE('',#212);
#46=PLANE('',#213);
#47=PLANE('',#214);
#48=PLANE('',#215);
#49=PLANE('',#216);
#50=PLANE('',#217);
#51=PLANE('',#218);
#52=PLANE('',#219);
#53=PLANE('',#220);
#54=FACE_OUTER_BOUND('',#64,.T.);
#55=FACE_OUTER_BOUND('',#65,.T.);
#56=FACE_OUTER_BOUND('',#66,.T.);
#57=FACE_OUTER_BOUND('',#67,.T.);
#58=FACE_OUTER_BOUND('',#68,.T.);
#59=FACE_OUTER_BOUND('',#69,.T.);
#60=FACE_OUTER_BOUND('',#70,.T.);
#61=FACE_OUTER_BOUND('',#71,.T.);
#62=FACE_OUTER_BOUND('',#72,.T.);
#63=FACE_OUTER_BOUND('',#73,.T.);
#64=EDGE_LOOP('',(#74,#75,#76,#77));
#65=EDGE_LOOP('',(#78,#79,#80,#81));
#66=EDGE_LOOP('',(#82,#83,#84,#85));
#67=EDGE_LOOP('',(#86,#87,#88,#89));
#68=EDGE_LOOP('',(#90,#91,#92,#93));
#69=EDGE_LOOP('',(#94,#95,#96,#97));
#70=EDGE_LOOP('',(#98,#99,#100,#101));
#71=EDGE_LOOP('',(#102,#103,#104,#105));
#72=EDGE_LOOP('',(#106,#107,#108,#109,#110,#111,#112,#113));
#73=EDGE_LOOP('',(#114,#115,#116,#117,#118,#119,#120,#121));
#74=ORIENTED_EDGE('',*,*,#138,.F.);
#75=ORIENTED_EDGE('',*,*,#139,.T.);
#76=ORIENTED_EDGE('',*,*,#140,.T.);
#77=ORIENTED_EDGE('',*,*,#141,.F.);
#78=ORIENTED_EDGE('',*,*,#142,.T.);
#79=ORIENTED_EDGE('',*,*,#143,.F.);
#80=ORIENTED_EDGE('',*,*,#144,.F.);
#81=ORIENTED_EDGE('',*,*,#145,.F.);
#82=ORIENTED_EDGE('',*,*,#146,.F.);
#83=ORIENTED_EDGE('',*,*,#147,.F.);
#84=ORIENTED_EDGE('',*,*,#148,.F.);
#85=ORIENTED_EDGE('',*,*,#149,.T.);
#86=ORIENTED_EDGE('',*,*,#150,.T.);
#87=ORIENTED_EDGE('',*,*,#151,.T.);
#88=ORIENTED_EDGE('',*,*,#152,.F.);
#89=ORIENTED_EDGE('',*,*,#153,.T.);
#90=ORIENTED_EDGE('',*,*,#143,.T.);
#91=ORIENTED_EDGE('',*,*,#154,.T.);
#92=ORIENTED_EDGE('',*,*,#148,.T.);
#93=ORIENTED_EDGE('',*,*,#155,.F.);
#94=ORIENTED_EDGE('',*,*,#139,.F.);
#95=ORIENTED_EDGE('',*,*,#156,.F.);
#96=ORIENTED_EDGE('',*,*,#146,.T.);
#97=ORIENTED_EDGE('',*,*,#157,.T.);
#98=ORIENTED_EDGE('',*,*,#153,.F.);
#99=ORIENTED_EDGE('',*,*,#158,.F.);
#100=ORIENTED_EDGE('',*,*,#141,.T.);
#101=ORIENTED_EDGE('',*,*,#159,.T.);
#102=ORIENTED_EDGE('',*,*,#151,.F.);
#103=ORIENTED_EDGE('',*,*,#160,.T.);
#104=ORIENTED_EDGE('',*,*,#145,.T.);
#105=ORIENTED_EDGE('',*,*,#161,.F.);
#106=ORIENTED_EDGE('',*,*,#160,.F.);
#107=ORIENTED_EDGE('',*,*,#150,.F.);
#108=ORIENTED_EDGE('',*,*,#159,.F.);
#109=ORIENTED_EDGE('',*,*,#140,.F.);
#110=ORIENTED_EDGE('',*,*,#157,.F.);
#111=ORIENTED_EDGE('',*,*,#149,.F.);
#112=ORIENTED_EDGE('',*,*,#154,.F.);
#113=ORIENTED_EDGE('',*,*,#142,.F.);
#114=ORIENTED_EDGE('',*,*,#155,.T.);
#115=ORIENTED_EDGE('',*,*,#147,.T.);
#116=ORIENTED_EDGE('',*,*,#156,.T.);
#117=ORIENTED_EDGE('',*,*,#138,.T.);
#118=ORIENTED_EDGE('',*,*,#158,.T.);
#119=ORIENTED_EDGE('',*,*,#152,.T.);
#120=ORIENTED_EDGE('',*,*,#161,.T.);
#121=ORIENTED_EDGE('',*,*,#144,.T.);
#122=VERTEX_POINT('',#269);
#123=VERTEX_POINT('',#270);
#124=VERTEX_POINT('',#272);
#125=VERTEX_POINT('',#274);
#126=VERTEX_POINT('',#278);
#127=VERTEX_POINT('',#279);
#128=VERTEX_POINT('',#281);
#129=VERTEX_POINT('',#283);
#130=VERTEX_POINT('',#287);
#131=VERTEX_POINT('',#288);
#132=VERTEX_POINT('',#290);
#133=VERTEX_POINT('',#292);
#134=VERTEX_POINT('',#296);
#135=VERTEX_POINT('',#297);
#136=VERTEX_POINT('',#299);
#137=VERTEX_POINT('',#301);
#138=EDGE_CURVE('',#122,#123,#162,.T.);
#139=EDGE_CURVE('',#122,#124,#163,.T.);
#140=EDGE_CURVE('',#124,#125,#164,.T.);
#141=EDGE_CURVE('',#123,#125,#165,.T.);
#142=EDGE_CURVE('',#126,#127,#166,.T.);
#143=EDGE_CURVE('',#128,#127,#167,.T.);
#144=EDGE_CURVE('',#129,#128,#168,.T.);
#145=EDGE_CURVE('',#126,#129,#169,.T.);
#146=EDGE_CURVE('',#130,#131,#170,.T.);
#147=EDGE_CURVE('',#132,#130,#171,.T.);
#148=EDGE_CURVE('',#133,#132,#172,.T.);
#149=EDGE_CURVE('',#133,#131,#173,.T.);
#150=EDGE_CURVE('',#134,#135,#174,.T.);
#151=EDGE_CURVE('',#135,#136,#175,.T.);
#152=EDGE_CURVE('',#137,#136,#176,.T.);
#153=EDGE_CURVE('',#137,#134,#177,.T.);
#154=EDGE_CURVE('',#127,#133,#178,.T.);
#155=EDGE_CURVE('',#128,#132,#179,.T.);
#156=EDGE_CURVE('',#130,#122,#180,.T.);
#157=EDGE_CURVE('',#131,#124,#181,.T.);
#158=EDGE_CURVE('',#123,#137,#182,.T.);
#159=EDGE_CURVE('',#125,#134,#183,.T.);
#160=EDGE_CURVE('',#135,#126,#184,.T.);
#161=EDGE_CURVE('',#136,#129,#185,.T.);
#162=LINE('',#268,#186);
#163=LINE('',#271,#187);
#164=LINE('',#273,#188);
#165=LINE('',#275,#189);
#166=LINE('',#277,#190);
#167=LINE('',#280,#191);
#168=LINE('',#282,#192);
#169=LINE('',#284,#193);
#170=LINE('',#286,#194);
#171=LINE('',#289,#195);
#172=LINE('',#291,#196);
#173=LINE('',#293,#197);
#174=LINE('',#295,#198);
#175=LINE('',#298,#199);
#176=LINE('',#300,#200);
#177=LINE('',#302,#201);
#178=LINE('',#304,#202);
#179=LINE('',#305,#203);
#180=LINE('',#307,#204);
#181=LINE('',#308,#205);
#182=LINE('',#310,#206);
#183=LINE('',#311,#207);
#184=LINE('',#313,#208);
#185=LINE('',#314,#209);
#186=VECTOR('',#223,1.);
#187=VECTOR('',#224,1.);
#188=VECTOR('',#225,1.);
#189=VECTOR('',#226,1.);
#190=VECTOR('',#229,1.);
#191=VECTOR('',#230,1.);
#192=VECTOR('',#231,1.);
#193=VECTOR('',#232,1.);
#194=VECTOR('',#235,1.);
#195=VECTOR('',#236,1.);
#196=VECTOR('',#237,1.);
#197=VECTOR('',#238,1.);
#198=VECTOR('',#241,1.);
#199=VECTOR('',#242,1.);
#200=VECTOR('',#243,1.);
#201=VECTOR('',#244,1.);
#202=VECTOR('',#247,1.);
#203=VECTOR('',#248,1.);
#204=VECTOR('',#251,1.);
#205=VECTOR('',#252,1.);
#206=VECTOR('',#255,1.);
#207=VECTOR('',#256,1.);
#208=VECTOR('',#259,1.);
#209=VECTOR('',#260,1.);
#210=AXIS2_PLACEMENT_3D('',#267,#221,#222);
#211=AXIS2_PLACEMENT_3D('',#276,#227,#228);
#212=AXIS2_PLACEMENT_3D('',#285,#233,#234);
#213=AXIS2_PLACEMENT_3D('',#294,#239,#240);
#214=AXIS2_PLACEMENT_3D('',#303,#245,#246);
#215=AXIS2_PLACEMENT_3D('',#306,#249,#250);
#216=AXIS2_PLACEMENT_3D('',#309,#253,#254);
#217=AXIS2_PLACEMENT_3D('',#312,#257,#258);
#218=AXIS2_PLACEMENT_3D('',#315,#261,#262);
#219=AXIS2_PLACEMENT_3D('',#316,#263,#264);
#220=AXIS2_PLACEMENT_3D('',#317,#265,#266);
#221=DIRECTION('',(0.,0.,1.));
#222=DIRECTION('',(1.,0.,0.));
#223=DIRECTION('',(-1.,0.,0.));
#224=DIRECTION('',(0.,-1.,0.));
#225=DIRECTION('',(-1.,0.,0.));
#226=DIRECTION('',(0.,-1.,0.));
#227=DIRECTION('',(0.,0.,-1.));
#228=DIRECTION('',(1.,0.,0.));
#229=DIRECTION('',(1.,0.,0.));
#230=DIRECTION('',(0.,-1.,0.));
#231=DIRECTION('',(1.,0.,0.));
#232=DIRECTION('',(0.,1.,0.));
#233=DIRECTION('',(0.,0.,1.));
#234=DIRECTION('',(-1.,0.,0.));
#235=DIRECTION('',(0.,-1.,0.));
#236=DIRECTION('',(-1.,0.,0.));
#237=DIRECTION('',(0.,1.,0.));
#238=DIRECTION('',(-1.,0.,0.));
#239=DIRECTION('',(0.,0.,-1.));
#240=DIRECTION('',(1.,0.,0.));
#241=DIRECTION('',(-1.,0.,0.));
#242=DIRECTION('',(0.,1.,0.));
#243=DIRECTION('',(-1.,0.,0.));
#244=DIRECTION('',(0.,-1.,0.));
#245=DIRECTION('',(0.,0.,-1.));
#246=DIRECTION('',(1.,0.,0.));
#247=DIRECTION('',(0.,-0.034899496702501,-0.999390827019096));
#248=DIRECTION('',(0.,0.034899496702501,-0.999390827019096));
#249=DIRECTION('',(1.,0.,0.));
#250=DIRECTION('',(0.,0.,1.));
#251=DIRECTION('',(-0.0348782627423734,0.0348782627423746,-0.998782765958718));
#252=DIRECTION('',(-0.0348782627423734,-0.0348782627423746,-0.998782765958718));
#253=DIRECTION('',(0.999390827019096,0.,-0.0348994967024998));
#254=DIRECTION('',(0.0348994967024998,0.,0.999390827019096));
#255=DIRECTION('',(-0.0348782627423734,-0.0348782627423746,0.998782765958718));
#256=DIRECTION('',(-0.0348782627423734,0.0348782627423746,0.998782765958718));
#257=DIRECTION('',(-0.999390827019096,0.,-0.0348994967024998));
#258=DIRECTION('',(0.0348994967024998,0.,-0.999390827019096));
#259=DIRECTION('',(0.,0.034899496702501,0.999390827019096));
#260=DIRECTION('',(0.,-0.034899496702501,0.999390827019096));
#261=DIRECTION('',(-1.,0.,0.));
#262=DIRECTION('',(0.,0.,-1.));
#263=DIRECTION('',(0.,-0.999390827019096,0.034899496702501));
#264=DIRECTION('',(0.,0.034899496702501,0.999390827019096));
#265=DIRECTION('',(0.,0.999390827019096,0.034899496702501));
#266=DIRECTION('',(0.,0.034899496702501,-0.999390827019096));
#267=CARTESIAN_POINT('',(0.,0.,0.));
#268=CARTESIAN_POINT('',(-11.2303957286424,21.3387050531273,0.000937554271777247));
#269=CARTESIAN_POINT('',(1.24309507661004,21.3387050531273,0.000937554271777247));
#270=CARTESIAN_POINT('',(-1.25690492339039,21.3387050531273,0.000937554271777247));
#271=CARTESIAN_POINT('',(1.24309507661004,-20.7585567538306,0.000937554271777247));
#272=CARTESIAN_POINT('',(1.24309507661004,-21.3696702199362,0.000937554271777247));
#273=CARTESIAN_POINT('',(-11.2303957286424,-21.3696702199362,0.000937554271777247));
#274=CARTESIAN_POINT('',(-1.25690492339039,-21.3696702199362,0.000937554271777247));
#275=CARTESIAN_POINT('',(-1.25690492339039,-20.7585567538306,0.000937554271777247));
#276=CARTESIAN_POINT('',(0.953388444167511,-20.7585567538306,0.000937554271777247));
#277=CARTESIAN_POINT('',(-11.2303957286424,-20.7585567538306,17.5009375542718));
#278=CARTESIAN_POINT('',(-2.66801838949639,-20.7585567538306,17.5009375542718));
#279=CARTESIAN_POINT('',(2.65420854271561,-20.7585567538306,17.5009375542718));
#280=CARTESIAN_POINT('',(2.65420854271561,-20.7585567538306,17.5009375542718));
#281=CARTESIAN_POINT('',(2.65420854271561,20.7275915870217,17.5009375542718));
#282=CARTESIAN_POINT('',(-11.2303957286424,20.7275915870217,17.5009375542718));
#283=CARTESIAN_POINT('',(-2.66801838949639,20.7275915870217,17.5009375542718));
#284=CARTESIAN_POINT('',(-2.66801838949639,-20.7585567538306,17.5009375542718));
#285=CARTESIAN_POINT('',(-0.917286936337386,-20.7585567538306,17.5009375542718));
#286=CARTESIAN_POINT('',(1.81230361932551,-20.7585567538306,16.3009375542718));
#287=CARTESIAN_POINT('',(1.81230361932551,20.7694965104118,16.3009375542718));
#288=CARTESIAN_POINT('',(1.81230361932551,-20.8004616772207,16.3009375542718));
#289=CARTESIAN_POINT('',(-11.2303957286424,20.7694965104118,16.3009375542718));
#290=CARTESIAN_POINT('',(2.65420854271561,20.7694965104118,16.3009375542718));
#291=CARTESIAN_POINT('',(2.65420854271561,-20.7585567538306,16.3009375542718));
#292=CARTESIAN_POINT('',(2.65420854271561,-20.8004616772207,16.3009375542718));
#293=CARTESIAN_POINT('',(-11.2303957286424,-20.8004616772207,16.3009375542718));
#294=CARTESIAN_POINT('',(-1.82611346610539,-20.7585567538306,16.3009375542718));
#295=CARTESIAN_POINT('',(-11.2303957286424,-20.8004616772207,16.3009375542718));
#296=CARTESIAN_POINT('',(-1.82611346610586,-20.8004616772207,16.3009375542718));
#297=CARTESIAN_POINT('',(-2.66801838949639,-20.8004616772207,16.3009375542718));
#298=CARTESIAN_POINT('',(-2.66801838949639,-20.7585567538306,16.3009375542718));
#299=CARTESIAN_POINT('',(-2.66801838949639,20.7694965104118,16.3009375542718));
#300=CARTESIAN_POINT('',(-11.2303957286424,20.7694965104118,16.3009375542718));
#301=CARTESIAN_POINT('',(-1.82611346610586,20.7694965104118,16.3009375542718));
#302=CARTESIAN_POINT('',(-1.82611346610586,-20.7585567538306,16.3009375542718));
#303=CARTESIAN_POINT('',(-1.82611346610539,-20.7585567538306,16.3009375542718));
#304=CARTESIAN_POINT('',(2.65420854271561,-20.7585567538306,17.5009375542718));
#305=CARTESIAN_POINT('',(2.65420854271561,20.7275915870217,17.5009375542718));
#306=CARTESIAN_POINT('',(2.65420854271561,-20.7585567538306,17.5009375542718));
#307=CARTESIAN_POINT('',(1.83829121043876,20.7435089192985,17.0451247956037));
#308=CARTESIAN_POINT('',(1.83829121043876,-20.7744740861074,17.0451247956037));
#309=CARTESIAN_POINT('',(1.81230361932551,-20.7585567538306,16.3009375542718));
#310=CARTESIAN_POINT('',(-1.87940765797652,20.7162023185411,17.8270835311883));
#311=CARTESIAN_POINT('',(-1.87940765797652,-20.74716748535,17.8270835311883));
#312=CARTESIAN_POINT('',(-1.26701553905399,-20.7585567538306,0.290467705260793));
#313=CARTESIAN_POINT('',(-2.66801838949639,-20.7585567538306,17.5009375542718));
#314=CARTESIAN_POINT('',(-2.66801838949639,20.7275915870217,17.5009375542718));
#315=CARTESIAN_POINT('',(-2.66801838949639,-20.7585567538306,16.7252016229823));
#316=CARTESIAN_POINT('',(-11.2303957286424,-20.7585567538306,17.5009375542718));
#317=CARTESIAN_POINT('',(-11.2303957286424,20.7275915870217,17.5009375542718));
#318=MECHANICAL_DESIGN_GEOMETRIC_PRESENTATION_REPRESENTATION('',(#24),#319);
#319=(
GEOMETRIC_REPRESENTATION_CONTEXT(3)
GLOBAL_UNCERTAINTY_ASSIGNED_CONTEXT((#320))
GLOBAL_UNIT_ASSIGNED_CONTEXT((#326,#322,#321))
REPRESENTATION_CONTEXT('28516_4_KDS-Inlay-1','TOP_LEVEL_ASSEMBLY_PART')
);
#320=UNCERTAINTY_MEASURE_WITH_UNIT(LENGTH_MEASURE(2.E-5),#326,
'DISTANCE_ACCURACY_VALUE','Maximum Tolerance applied to model');
#321=(
NAMED_UNIT(*)
SI_UNIT($,.STERADIAN.)
SOLID_ANGLE_UNIT()
);
#322=(
CONVERSION_BASED_UNIT('DEGREE',#324)
NAMED_UNIT(#323)
PLANE_ANGLE_UNIT()
);
#323=DIMENSIONAL_EXPONENTS(0.,0.,0.,0.,0.,0.,0.);
#324=PLANE_ANGLE_MEASURE_WITH_UNIT(PLANE_ANGLE_MEASURE(0.0174532925),#325);
#325=(
NAMED_UNIT(*)
PLANE_ANGLE_UNIT()
SI_UNIT($,.RADIAN.)
);
#326=(
LENGTH_UNIT()
NAMED_UNIT(*)
SI_UNIT(.MILLI.,.METRE.)
);
ENDSEC;
END-ISO-10303-21;
