ISO-10303-21;
HEADER;
/* Generated by software containing ST-Developer
 * from STEP Tools, Inc. (www.steptools.com) 
 */
/* OPTION: using custom schema-name function */

FILE_DESCRIPTION(
/* description */ (''),
/* implementation_level */ '2;1');

FILE_NAME(
/* name */ '2001_AP25_10_iso.stp',
/* time_stamp */ '2011-07-26T15:13:48+02:00',
/* author */ (''),
/* organization */ (''),
/* preprocessor_version */ 'ST-DEVELOPER v11',
/* originating_system */ 'SIEMENS UGS NX 6.0',
/* authorisation */ '');

FILE_SCHEMA (('CONFIG_CONTROL_DESIGN'));
ENDSEC;

DATA;
#10=SHAPE_REPRESENTATION_RELATIONSHIP('None',
'relationship between 2001_AP25_10_iso-None and 2001_AP25_10_iso-None',#94,
#11);
#11=ADVANCED_BREP_SHAPE_REPRESENTATION('2001_AP25_10_iso-None',(#95),#583);
#12=CC_DESIGN_APPROVAL(#24,(#82));
#13=CC_DESIGN_APPROVAL(#25,(#84));
#14=CC_DESIGN_APPROVAL(#26,(#31));
#15=APPROVAL_PERSON_ORGANIZATION(#69,#24,#18);
#16=APPROVAL_PERSON_ORGANIZATION(#70,#25,#19);
#17=APPROVAL_PERSON_ORGANIZATION(#71,#26,#20);
#18=APPROVAL_ROLE('approver');
#19=APPROVAL_ROLE('approver');
#20=APPROVAL_ROLE('approver');
#21=APPROVAL_DATE_TIME(#39,#24);
#22=APPROVAL_DATE_TIME(#40,#25);
#23=APPROVAL_DATE_TIME(#41,#26);
#24=APPROVAL(#27,' ');
#25=APPROVAL(#28,' ');
#26=APPROVAL(#29,' ');
#27=APPROVAL_STATUS('not_yet_approved');
#28=APPROVAL_STATUS('not_yet_approved');
#29=APPROVAL_STATUS('not_yet_approved');
#30=CC_DESIGN_SECURITY_CLASSIFICATION(#31,(#84));
#31=SECURITY_CLASSIFICATION(' ',' ',#32);
#32=SECURITY_CLASSIFICATION_LEVEL('confidential');
#33=CC_DESIGN_DATE_AND_TIME_ASSIGNMENT(#37,#35,(#82));
#34=CC_DESIGN_DATE_AND_TIME_ASSIGNMENT(#38,#36,(#31));
#35=DATE_TIME_ROLE('creation_date');
#36=DATE_TIME_ROLE('classification_date');
#37=DATE_AND_TIME(#52,#42);
#38=DATE_AND_TIME(#53,#43);
#39=DATE_AND_TIME(#54,#44);
#40=DATE_AND_TIME(#55,#45);
#41=DATE_AND_TIME(#56,#46);
#42=LOCAL_TIME(0,0,0.,#47);
#43=LOCAL_TIME(0,0,0.,#48);
#44=LOCAL_TIME(0,0,0.,#49);
#45=LOCAL_TIME(0,0,0.,#50);
#46=LOCAL_TIME(0,0,0.,#51);
#47=COORDINATED_UNIVERSAL_TIME_OFFSET(0,0,.BEHIND.);
#48=COORDINATED_UNIVERSAL_TIME_OFFSET(0,0,.BEHIND.);
#49=COORDINATED_UNIVERSAL_TIME_OFFSET(0,0,.BEHIND.);
#50=COORDINATED_UNIVERSAL_TIME_OFFSET(0,0,.BEHIND.);
#51=COORDINATED_UNIVERSAL_TIME_OFFSET(0,0,.BEHIND.);
#52=CALENDAR_DATE(0,1,1);
#53=CALENDAR_DATE(0,1,1);
#54=CALENDAR_DATE(0,1,1);
#55=CALENDAR_DATE(0,1,1);
#56=CALENDAR_DATE(0,1,1);
#57=CC_DESIGN_PERSON_AND_ORGANIZATION_ASSIGNMENT(#65,#61,(#82,#84));
#58=CC_DESIGN_PERSON_AND_ORGANIZATION_ASSIGNMENT(#66,#62,(#86));
#59=CC_DESIGN_PERSON_AND_ORGANIZATION_ASSIGNMENT(#67,#63,(#84));
#60=CC_DESIGN_PERSON_AND_ORGANIZATION_ASSIGNMENT(#68,#64,(#31));
#61=PERSON_AND_ORGANIZATION_ROLE('creator');
#62=PERSON_AND_ORGANIZATION_ROLE('design_owner');
#63=PERSON_AND_ORGANIZATION_ROLE('design_supplier');
#64=PERSON_AND_ORGANIZATION_ROLE('classification_officer');
#65=PERSON_AND_ORGANIZATION(#79,#72);
#66=PERSON_AND_ORGANIZATION(#79,#73);
#67=PERSON_AND_ORGANIZATION(#79,#74);
#68=PERSON_AND_ORGANIZATION(#79,#75);
#69=PERSON_AND_ORGANIZATION(#79,#76);
#70=PERSON_AND_ORGANIZATION(#79,#77);
#71=PERSON_AND_ORGANIZATION(#79,#78);
#72=ORGANIZATION(' ',' ',' ');
#73=ORGANIZATION(' ',' ',' ');
#74=ORGANIZATION(' ',' ',' ');
#75=ORGANIZATION(' ',' ',' ');
#76=ORGANIZATION(' ',' ',' ');
#77=ORGANIZATION(' ',' ',' ');
#78=ORGANIZATION(' ',' ',' ');
#79=PERSON(' ',' ',' ',(' '),$,$);
#80=SHAPE_DEFINITION_REPRESENTATION(#81,#94);
#81=PRODUCT_DEFINITION_SHAPE('','',#82);
#82=PRODUCT_DEFINITION(' ','',#84,#83);
#83=DESIGN_CONTEXT('',#93,'design');
#84=PRODUCT_DEFINITION_FORMATION_WITH_SPECIFIED_SOURCE(' ',' ',#86,.NOT_KNOWN.);
#85=PRODUCT_RELATED_PRODUCT_CATEGORY('detail','',(#86));
#86=PRODUCT('2001_AP25_10_iso','2001_AP25_10_iso',' ',(#91));
#87=PRODUCT_CATEGORY_RELATIONSHIP(' ',' ',#89,#90);
#88=PRODUCT_CATEGORY_RELATIONSHIP('','',#90,#85);
#89=PRODUCT_CATEGORY('part',' ');
#90=PRODUCT_CATEGORY(' ','');
#91=MECHANICAL_CONTEXT(' ',#93,'mechanical');
#92=APPLICATION_PROTOCOL_DEFINITION('international standard',
'config_control_design',1994,#93);
#93=APPLICATION_CONTEXT(
'configuration controlled 3D designs of mechanical parts and assemblies');
#94=SHAPE_REPRESENTATION('2001_AP25_10_iso-None',(#395),#583);
#95=MANIFOLD_SOLID_BREP('',#96);
#96=CLOSED_SHELL('',(#99,#100,#101,#102,#103,#104,#105,#106,#107,#108,#109,
#110,#111,#112,#113,#114));
#97=CYLINDRICAL_SURFACE('',#414,1.);
#98=CYLINDRICAL_SURFACE('',#415,1.);
#99=ADVANCED_FACE('',(#129),#115,.T.);
#100=ADVANCED_FACE('',(#130),#116,.T.);
#101=ADVANCED_FACE('',(#131),#117,.T.);
#102=ADVANCED_FACE('',(#132),#118,.T.);
#103=ADVANCED_FACE('',(#133),#119,.T.);
#104=ADVANCED_FACE('',(#134),#120,.T.);
#105=ADVANCED_FACE('',(#135),#121,.F.);
#106=ADVANCED_FACE('',(#136),#122,.F.);
#107=ADVANCED_FACE('',(#137),#123,.F.);
#108=ADVANCED_FACE('',(#138),#124,.F.);
#109=ADVANCED_FACE('',(#139),#125,.T.);
#110=ADVANCED_FACE('',(#140),#126,.T.);
#111=ADVANCED_FACE('',(#141),#127,.T.);
#112=ADVANCED_FACE('',(#142),#128,.T.);
#113=ADVANCED_FACE('',(#143),#97,.T.);
#114=ADVANCED_FACE('',(#144),#98,.F.);
#115=PLANE('',#398);
#116=PLANE('',#401);
#117=PLANE('',#402);
#118=PLANE('',#403);
#119=PLANE('',#404);
#120=PLANE('',#405);
#121=PLANE('',#406);
#122=PLANE('',#407);
#123=PLANE('',#408);
#124=PLANE('',#409);
#125=PLANE('',#410);
#126=PLANE('',#411);
#127=PLANE('',#412);
#128=PLANE('',#413);
#129=FACE_OUTER_BOUND('',#145,.T.);
#130=FACE_OUTER_BOUND('',#146,.T.);
#131=FACE_OUTER_BOUND('',#147,.T.);
#132=FACE_OUTER_BOUND('',#148,.T.);
#133=FACE_OUTER_BOUND('',#149,.T.);
#134=FACE_OUTER_BOUND('',#150,.T.);
#135=FACE_OUTER_BOUND('',#151,.T.);
#136=FACE_OUTER_BOUND('',#152,.T.);
#137=FACE_OUTER_BOUND('',#153,.T.);
#138=FACE_OUTER_BOUND('',#154,.T.);
#139=FACE_OUTER_BOUND('',#155,.T.);
#140=FACE_OUTER_BOUND('',#156,.T.);
#141=FACE_OUTER_BOUND('',#157,.T.);
#142=FACE_OUTER_BOUND('',#158,.T.);
#143=FACE_OUTER_BOUND('',#159,.T.);
#144=FACE_OUTER_BOUND('',#160,.T.);
#145=EDGE_LOOP('',(#165,#166,#167,#168,#169,#170,#171,#172,#173,#174,#175,
#176,#177,#178));
#146=EDGE_LOOP('',(#179,#180,#181,#182,#183,#184,#185,#186,#187,#188,#189,
#190,#191,#192));
#147=EDGE_LOOP('',(#193,#194,#195,#196));
#148=EDGE_LOOP('',(#197,#198,#199,#200));
#149=EDGE_LOOP('',(#201,#202,#203,#204));
#150=EDGE_LOOP('',(#205,#206,#207,#208));
#151=EDGE_LOOP('',(#209,#210,#211,#212));
#152=EDGE_LOOP('',(#213,#214,#215,#216));
#153=EDGE_LOOP('',(#217,#218,#219,#220));
#154=EDGE_LOOP('',(#221,#222,#223,#224));
#155=EDGE_LOOP('',(#225,#226,#227,#228));
#156=EDGE_LOOP('',(#229,#230,#231,#232));
#157=EDGE_LOOP('',(#233,#234,#235,#236));
#158=EDGE_LOOP('',(#237,#238,#239,#240));
#159=EDGE_LOOP('',(#241,#242,#243,#244));
#160=EDGE_LOOP('',(#245,#246,#247,#248));
#161=CIRCLE('',#396,1.);
#162=CIRCLE('',#397,1.);
#163=CIRCLE('',#399,1.);
#164=CIRCLE('',#400,1.);
#165=ORIENTED_EDGE('',*,*,#277,.F.);
#166=ORIENTED_EDGE('',*,*,#278,.T.);
#167=ORIENTED_EDGE('',*,*,#279,.F.);
#168=ORIENTED_EDGE('',*,*,#280,.F.);
#169=ORIENTED_EDGE('',*,*,#281,.T.);
#170=ORIENTED_EDGE('',*,*,#282,.T.);
#171=ORIENTED_EDGE('',*,*,#283,.F.);
#172=ORIENTED_EDGE('',*,*,#284,.T.);
#173=ORIENTED_EDGE('',*,*,#285,.F.);
#174=ORIENTED_EDGE('',*,*,#286,.T.);
#175=ORIENTED_EDGE('',*,*,#287,.F.);
#176=ORIENTED_EDGE('',*,*,#288,.T.);
#177=ORIENTED_EDGE('',*,*,#289,.T.);
#178=ORIENTED_EDGE('',*,*,#290,.T.);
#179=ORIENTED_EDGE('',*,*,#291,.F.);
#180=ORIENTED_EDGE('',*,*,#292,.T.);
#181=ORIENTED_EDGE('',*,*,#293,.F.);
#182=ORIENTED_EDGE('',*,*,#294,.T.);
#183=ORIENTED_EDGE('',*,*,#295,.T.);
#184=ORIENTED_EDGE('',*,*,#296,.T.);
#185=ORIENTED_EDGE('',*,*,#297,.F.);
#186=ORIENTED_EDGE('',*,*,#298,.T.);
#187=ORIENTED_EDGE('',*,*,#299,.F.);
#188=ORIENTED_EDGE('',*,*,#300,.T.);
#189=ORIENTED_EDGE('',*,*,#301,.F.);
#190=ORIENTED_EDGE('',*,*,#302,.T.);
#191=ORIENTED_EDGE('',*,*,#303,.T.);
#192=ORIENTED_EDGE('',*,*,#304,.F.);
#193=ORIENTED_EDGE('',*,*,#304,.T.);
#194=ORIENTED_EDGE('',*,*,#305,.T.);
#195=ORIENTED_EDGE('',*,*,#280,.T.);
#196=ORIENTED_EDGE('',*,*,#306,.F.);
#197=ORIENTED_EDGE('',*,*,#297,.T.);
#198=ORIENTED_EDGE('',*,*,#307,.T.);
#199=ORIENTED_EDGE('',*,*,#287,.T.);
#200=ORIENTED_EDGE('',*,*,#308,.T.);
#201=ORIENTED_EDGE('',*,*,#299,.T.);
#202=ORIENTED_EDGE('',*,*,#309,.T.);
#203=ORIENTED_EDGE('',*,*,#285,.T.);
#204=ORIENTED_EDGE('',*,*,#310,.T.);
#205=ORIENTED_EDGE('',*,*,#283,.T.);
#206=ORIENTED_EDGE('',*,*,#311,.T.);
#207=ORIENTED_EDGE('',*,*,#301,.T.);
#208=ORIENTED_EDGE('',*,*,#312,.T.);
#209=ORIENTED_EDGE('',*,*,#298,.F.);
#210=ORIENTED_EDGE('',*,*,#308,.F.);
#211=ORIENTED_EDGE('',*,*,#286,.F.);
#212=ORIENTED_EDGE('',*,*,#309,.F.);
#213=ORIENTED_EDGE('',*,*,#300,.F.);
#214=ORIENTED_EDGE('',*,*,#310,.F.);
#215=ORIENTED_EDGE('',*,*,#284,.F.);
#216=ORIENTED_EDGE('',*,*,#312,.F.);
#217=ORIENTED_EDGE('',*,*,#295,.F.);
#218=ORIENTED_EDGE('',*,*,#313,.T.);
#219=ORIENTED_EDGE('',*,*,#289,.F.);
#220=ORIENTED_EDGE('',*,*,#314,.F.);
#221=ORIENTED_EDGE('',*,*,#305,.F.);
#222=ORIENTED_EDGE('',*,*,#303,.F.);
#223=ORIENTED_EDGE('',*,*,#315,.T.);
#224=ORIENTED_EDGE('',*,*,#281,.F.);
#225=ORIENTED_EDGE('',*,*,#302,.F.);
#226=ORIENTED_EDGE('',*,*,#311,.F.);
#227=ORIENTED_EDGE('',*,*,#282,.F.);
#228=ORIENTED_EDGE('',*,*,#315,.F.);
#229=ORIENTED_EDGE('',*,*,#296,.F.);
#230=ORIENTED_EDGE('',*,*,#314,.T.);
#231=ORIENTED_EDGE('',*,*,#288,.F.);
#232=ORIENTED_EDGE('',*,*,#307,.F.);
#233=ORIENTED_EDGE('',*,*,#279,.T.);
#234=ORIENTED_EDGE('',*,*,#316,.T.);
#235=ORIENTED_EDGE('',*,*,#291,.T.);
#236=ORIENTED_EDGE('',*,*,#306,.T.);
#237=ORIENTED_EDGE('',*,*,#293,.T.);
#238=ORIENTED_EDGE('',*,*,#317,.T.);
#239=ORIENTED_EDGE('',*,*,#277,.T.);
#240=ORIENTED_EDGE('',*,*,#318,.T.);
#241=ORIENTED_EDGE('',*,*,#292,.F.);
#242=ORIENTED_EDGE('',*,*,#316,.F.);
#243=ORIENTED_EDGE('',*,*,#278,.F.);
#244=ORIENTED_EDGE('',*,*,#317,.F.);
#245=ORIENTED_EDGE('',*,*,#294,.F.);
#246=ORIENTED_EDGE('',*,*,#318,.F.);
#247=ORIENTED_EDGE('',*,*,#290,.F.);
#248=ORIENTED_EDGE('',*,*,#313,.F.);
#249=VERTEX_POINT('',#498);
#250=VERTEX_POINT('',#499);
#251=VERTEX_POINT('',#501);
#252=VERTEX_POINT('',#503);
#253=VERTEX_POINT('',#505);
#254=VERTEX_POINT('',#507);
#255=VERTEX_POINT('',#509);
#256=VERTEX_POINT('',#511);
#257=VERTEX_POINT('',#513);
#258=VERTEX_POINT('',#515);
#259=VERTEX_POINT('',#517);
#260=VERTEX_POINT('',#519);
#261=VERTEX_POINT('',#521);
#262=VERTEX_POINT('',#523);
#263=VERTEX_POINT('',#527);
#264=VERTEX_POINT('',#528);
#265=VERTEX_POINT('',#530);
#266=VERTEX_POINT('',#532);
#267=VERTEX_POINT('',#534);
#268=VERTEX_POINT('',#536);
#269=VERTEX_POINT('',#538);
#270=VERTEX_POINT('',#540);
#271=VERTEX_POINT('',#542);
#272=VERTEX_POINT('',#544);
#273=VERTEX_POINT('',#546);
#274=VERTEX_POINT('',#548);
#275=VERTEX_POINT('',#550);
#276=VERTEX_POINT('',#552);
#277=EDGE_CURVE('',#249,#250,#319,.T.);
#278=EDGE_CURVE('',#249,#251,#161,.T.);
#279=EDGE_CURVE('',#252,#251,#320,.T.);
#280=EDGE_CURVE('',#253,#252,#321,.T.);
#281=EDGE_CURVE('',#253,#254,#322,.T.);
#282=EDGE_CURVE('',#254,#255,#323,.T.);
#283=EDGE_CURVE('',#256,#255,#324,.T.);
#284=EDGE_CURVE('',#256,#257,#325,.T.);
#285=EDGE_CURVE('',#258,#257,#326,.T.);
#286=EDGE_CURVE('',#258,#259,#327,.T.);
#287=EDGE_CURVE('',#260,#259,#328,.T.);
#288=EDGE_CURVE('',#260,#261,#329,.T.);
#289=EDGE_CURVE('',#261,#262,#330,.T.);
#290=EDGE_CURVE('',#262,#250,#162,.T.);
#291=EDGE_CURVE('',#263,#264,#331,.T.);
#292=EDGE_CURVE('',#263,#265,#163,.T.);
#293=EDGE_CURVE('',#266,#265,#332,.T.);
#294=EDGE_CURVE('',#266,#267,#164,.T.);
#295=EDGE_CURVE('',#267,#268,#333,.T.);
#296=EDGE_CURVE('',#268,#269,#334,.T.);
#297=EDGE_CURVE('',#270,#269,#335,.T.);
#298=EDGE_CURVE('',#270,#271,#336,.T.);
#299=EDGE_CURVE('',#272,#271,#337,.T.);
#300=EDGE_CURVE('',#272,#273,#338,.T.);
#301=EDGE_CURVE('',#274,#273,#339,.T.);
#302=EDGE_CURVE('',#274,#275,#340,.T.);
#303=EDGE_CURVE('',#275,#276,#341,.T.);
#304=EDGE_CURVE('',#264,#276,#342,.T.);
#305=EDGE_CURVE('',#276,#253,#343,.T.);
#306=EDGE_CURVE('',#264,#252,#344,.T.);
#307=EDGE_CURVE('',#269,#260,#345,.T.);
#308=EDGE_CURVE('',#259,#270,#346,.T.);
#309=EDGE_CURVE('',#271,#258,#347,.T.);
#310=EDGE_CURVE('',#257,#272,#348,.T.);
#311=EDGE_CURVE('',#255,#274,#349,.T.);
#312=EDGE_CURVE('',#273,#256,#350,.T.);
#313=EDGE_CURVE('',#267,#262,#351,.T.);
#314=EDGE_CURVE('',#268,#261,#352,.T.);
#315=EDGE_CURVE('',#275,#254,#353,.T.);
#316=EDGE_CURVE('',#251,#263,#354,.T.);
#317=EDGE_CURVE('',#265,#249,#355,.T.);
#318=EDGE_CURVE('',#250,#266,#356,.T.);
#319=LINE('',#497,#357);
#320=LINE('',#502,#358);
#321=LINE('',#504,#359);
#322=LINE('',#506,#360);
#323=LINE('',#508,#361);
#324=LINE('',#510,#362);
#325=LINE('',#512,#363);
#326=LINE('',#514,#364);
#327=LINE('',#516,#365);
#328=LINE('',#518,#366);
#329=LINE('',#520,#367);
#330=LINE('',#522,#368);
#331=LINE('',#526,#369);
#332=LINE('',#531,#370);
#333=LINE('',#535,#371);
#334=LINE('',#537,#372);
#335=LINE('',#539,#373);
#336=LINE('',#541,#374);
#337=LINE('',#543,#375);
#338=LINE('',#545,#376);
#339=LINE('',#547,#377);
#340=LINE('',#549,#378);
#341=LINE('',#551,#379);
#342=LINE('',#553,#380);
#343=LINE('',#555,#381);
#344=LINE('',#556,#382);
#345=LINE('',#558,#383);
#346=LINE('',#559,#384);
#347=LINE('',#561,#385);
#348=LINE('',#562,#386);
#349=LINE('',#564,#387);
#350=LINE('',#565,#388);
#351=LINE('',#569,#389);
#352=LINE('',#570,#390);
#353=LINE('',#572,#391);
#354=LINE('',#576,#392);
#355=LINE('',#578,#393);
#356=LINE('',#579,#394);
#357=VECTOR('',#418,1.);
#358=VECTOR('',#421,1.);
#359=VECTOR('',#422,1.);
#360=VECTOR('',#423,1.);
#361=VECTOR('',#424,1.);
#362=VECTOR('',#425,1.);
#363=VECTOR('',#426,1.);
#364=VECTOR('',#427,1.);
#365=VECTOR('',#428,1.);
#366=VECTOR('',#429,1.);
#367=VECTOR('',#430,1.);
#368=VECTOR('',#431,1.);
#369=VECTOR('',#436,1.);
#370=VECTOR('',#439,1.);
#371=VECTOR('',#442,1.);
#372=VECTOR('',#443,1.);
#373=VECTOR('',#444,1.);
#374=VECTOR('',#445,1.);
#375=VECTOR('',#446,1.);
#376=VECTOR('',#447,1.);
#377=VECTOR('',#448,1.);
#378=VECTOR('',#449,1.);
#379=VECTOR('',#450,1.);
#380=VECTOR('',#451,1.);
#381=VECTOR('',#454,1.);
#382=VECTOR('',#455,1.);
#383=VECTOR('',#458,1.);
#384=VECTOR('',#459,1.);
#385=VECTOR('',#462,1.);
#386=VECTOR('',#463,1.);
#387=VECTOR('',#466,1.);
#388=VECTOR('',#467,1.);
#389=VECTOR('',#474,1.);
#390=VECTOR('',#475,1.);
#391=VECTOR('',#478,1.);
#392=VECTOR('',#485,1.);
#393=VECTOR('',#488,1.);
#394=VECTOR('',#489,1.);
#395=AXIS2_PLACEMENT_3D('',#496,#416,#417);
#396=AXIS2_PLACEMENT_3D('',#500,#419,#420);
#397=AXIS2_PLACEMENT_3D('',#524,#432,#433);
#398=AXIS2_PLACEMENT_3D('',#525,#434,#435);
#399=AXIS2_PLACEMENT_3D('',#529,#437,#438);
#400=AXIS2_PLACEMENT_3D('',#533,#440,#441);
#401=AXIS2_PLACEMENT_3D('',#554,#452,#453);
#402=AXIS2_PLACEMENT_3D('',#557,#456,#457);
#403=AXIS2_PLACEMENT_3D('',#560,#460,#461);
#404=AXIS2_PLACEMENT_3D('',#563,#464,#465);
#405=AXIS2_PLACEMENT_3D('',#566,#468,#469);
#406=AXIS2_PLACEMENT_3D('',#567,#470,#471);
#407=AXIS2_PLACEMENT_3D('',#568,#472,#473);
#408=AXIS2_PLACEMENT_3D('',#571,#476,#477);
#409=AXIS2_PLACEMENT_3D('',#573,#479,#480);
#410=AXIS2_PLACEMENT_3D('',#574,#481,#482);
#411=AXIS2_PLACEMENT_3D('',#575,#483,#484);
#412=AXIS2_PLACEMENT_3D('',#577,#486,#487);
#413=AXIS2_PLACEMENT_3D('',#580,#490,#491);
#414=AXIS2_PLACEMENT_3D('',#581,#492,#493);
#415=AXIS2_PLACEMENT_3D('',#582,#494,#495);
#416=DIRECTION('',(0.,0.,1.));
#417=DIRECTION('',(1.,0.,0.));
#418=DIRECTION('',(-0.939692620785908,0.342020143325669,0.));
#419=DIRECTION('',(0.,0.,-1.));
#420=DIRECTION('',(-1.,0.,0.));
#421=DIRECTION('',(0.,1.,0.));
#422=DIRECTION('',(1.,0.,0.));
#423=DIRECTION('',(0.,1.,0.));
#424=DIRECTION('',(-0.500000000000001,0.866025403784438,0.));
#425=DIRECTION('',(0.,-1.,0.));
#426=DIRECTION('',(0.707106781186548,0.707106781186548,0.));
#427=DIRECTION('',(-1.,0.,0.));
#428=DIRECTION('',(0.707106781186547,-0.707106781186548,0.));
#429=DIRECTION('',(0.,1.,0.));
#430=DIRECTION('',(-0.500000000000001,-0.866025403784438,0.));
#431=DIRECTION('',(0.,-1.,0.));
#432=DIRECTION('',(0.,0.,1.));
#433=DIRECTION('',(-1.,0.,0.));
#434=DIRECTION('',(0.,0.,-1.));
#435=DIRECTION('',(-1.,0.,0.));
#436=DIRECTION('',(0.,-1.,0.));
#437=DIRECTION('',(0.,0.,1.));
#438=DIRECTION('',(1.,0.,0.));
#439=DIRECTION('',(0.939692620785908,-0.342020143325669,0.));
#440=DIRECTION('',(0.,0.,-1.));
#441=DIRECTION('',(1.,0.,0.));
#442=DIRECTION('',(0.,1.,0.));
#443=DIRECTION('',(0.500000000000001,0.866025403784438,0.));
#444=DIRECTION('',(0.,-1.,0.));
#445=DIRECTION('',(-0.707106781186547,0.707106781186548,0.));
#446=DIRECTION('',(1.,0.,0.));
#447=DIRECTION('',(-0.707106781186548,-0.707106781186548,0.));
#448=DIRECTION('',(0.,1.,0.));
#449=DIRECTION('',(0.500000000000001,-0.866025403784438,0.));
#450=DIRECTION('',(0.,-1.,0.));
#451=DIRECTION('',(-1.,0.,0.));
#452=DIRECTION('',(0.,0.,1.));
#453=DIRECTION('',(1.,0.,0.));
#454=DIRECTION('',(0.,0.,-1.));
#455=DIRECTION('',(0.,0.,-1.));
#456=DIRECTION('',(0.,-1.,0.));
#457=DIRECTION('',(0.,0.,1.));
#458=DIRECTION('',(0.,0.,-1.));
#459=DIRECTION('',(0.,0.,1.));
#460=DIRECTION('',(1.,0.,0.));
#461=DIRECTION('',(0.,0.,-1.));
#462=DIRECTION('',(0.,0.,-1.));
#463=DIRECTION('',(0.,0.,1.));
#464=DIRECTION('',(0.,1.,0.));
#465=DIRECTION('',(0.,0.,-1.));
#466=DIRECTION('',(0.,0.,1.));
#467=DIRECTION('',(0.,0.,-1.));
#468=DIRECTION('',(-1.,0.,0.));
#469=DIRECTION('',(0.,0.,1.));
#470=DIRECTION('',(-0.707106781186548,-0.707106781186547,0.));
#471=DIRECTION('',(-0.707106781186547,0.707106781186548,0.));
#472=DIRECTION('',(0.707106781186548,-0.707106781186548,0.));
#473=DIRECTION('',(-0.707106781186548,-0.707106781186548,0.));
#474=DIRECTION('',(0.,0.,-1.));
#475=DIRECTION('',(0.,0.,-1.));
#476=DIRECTION('',(-1.,0.,0.));
#477=DIRECTION('',(0.,0.,1.));
#478=DIRECTION('',(0.,0.,-1.));
#479=DIRECTION('',(1.,0.,0.));
#480=DIRECTION('',(0.,0.,-1.));
#481=DIRECTION('',(-0.866025403784438,-0.500000000000001,0.));
#482=DIRECTION('',(-0.500000000000001,0.866025403784438,0.));
#483=DIRECTION('',(0.866025403784438,-0.500000000000001,0.));
#484=DIRECTION('',(-0.500000000000001,-0.866025403784438,0.));
#485=DIRECTION('',(0.,0.,1.));
#486=DIRECTION('',(1.,0.,0.));
#487=DIRECTION('',(0.,0.,-1.));
#488=DIRECTION('',(0.,0.,-1.));
#489=DIRECTION('',(0.,0.,1.));
#490=DIRECTION('',(0.342020143325669,0.939692620785908,0.));
#491=DIRECTION('',(0.939692620785908,-0.342020143325669,0.));
#492=DIRECTION('',(0.,0.,-1.));
#493=DIRECTION('',(-1.,0.,0.));
#494=DIRECTION('',(0.,0.,-1.));
#495=DIRECTION('',(-1.,0.,0.));
#496=CARTESIAN_POINT('',(0.,0.,0.));
#497=CARTESIAN_POINT('',(44.7,3.45,-7.26415455565288E-014));
#498=CARTESIAN_POINT('',(45.6420201433257,3.10713270775027,-7.26415455565288E-014));
#499=CARTESIAN_POINT('',(45.3579798566743,3.2105149174238,-7.26415455565288E-014));
#500=CARTESIAN_POINT('',(45.3,2.16744008696437,-7.26415455565288E-014));
#501=CARTESIAN_POINT('',(46.3,2.16744008696437,-7.26415455565288E-014));
#502=CARTESIAN_POINT('',(46.3,1.725,-7.26415455565288E-014));
#503=CARTESIAN_POINT('',(46.3,0.,-7.26415455565288E-014));
#504=CARTESIAN_POINT('',(23.85,0.,-7.26415455565288E-014));
#505=CARTESIAN_POINT('',(3.,0.,-7.26415455565288E-014));
#506=CARTESIAN_POINT('',(3.,8.,-7.26415455565288E-014));
#507=CARTESIAN_POINT('',(3.,16.,-7.26415455565288E-014));
#508=CARTESIAN_POINT('',(8.36405444566229,6.70918516554721,-7.26415455565288E-014));
#509=CARTESIAN_POINT('',(-1.38777878078145E-014,21.1961524227066,-7.26415455565288E-014));
#510=CARTESIAN_POINT('',(-1.38777878078145E-014,15.65,-7.26415455565288E-014));
#511=CARTESIAN_POINT('',(-1.38777878078145E-014,21.3,-7.26415455565288E-014));
#512=CARTESIAN_POINT('',(9.09999999999999,30.4,-7.26415455565288E-014));
#513=CARTESIAN_POINT('',(9.99999999999999,31.3,-7.26415455565288E-014));
#514=CARTESIAN_POINT('',(23.85,31.3,-7.26415455565288E-014));
#515=CARTESIAN_POINT('',(37.7,31.3,-7.26415455565288E-014));
#516=CARTESIAN_POINT('',(38.6,30.4,-7.26415455565288E-014));
#517=CARTESIAN_POINT('',(47.7,21.3,-7.26415455565288E-014));
#518=CARTESIAN_POINT('',(47.7,15.65,-7.26415455565288E-014));
#519=CARTESIAN_POINT('',(47.7,21.1961524227066,-7.26415455565288E-014));
#520=CARTESIAN_POINT('',(39.3359455543377,6.70918516554721,-7.26415455565288E-014));
#521=CARTESIAN_POINT('',(44.7,16.,-7.26415455565288E-014));
#522=CARTESIAN_POINT('',(44.7,8.,-7.26415455565288E-014));
#523=CARTESIAN_POINT('',(44.7,4.15020753820971,-7.26415455565288E-014));
#524=CARTESIAN_POINT('',(45.7,4.15020753820971,-7.26415455565288E-014));
#525=CARTESIAN_POINT('',(23.85,15.65,-7.26415455565288E-014));
#526=CARTESIAN_POINT('',(46.3,1.725,1.49999999999993));
#527=CARTESIAN_POINT('',(46.3,2.16744008696437,1.49999999999993));
#528=CARTESIAN_POINT('',(46.3,0.,1.49999999999993));
#529=CARTESIAN_POINT('',(45.3,2.16744008696437,1.49999999999993));
#530=CARTESIAN_POINT('',(45.6420201433257,3.10713270775027,1.49999999999993));
#531=CARTESIAN_POINT('',(44.7,3.45,1.49999999999993));
#532=CARTESIAN_POINT('',(45.3579798566743,3.2105149174238,1.49999999999993));
#533=CARTESIAN_POINT('',(45.7,4.15020753820971,1.49999999999993));
#534=CARTESIAN_POINT('',(44.7,4.15020753820971,1.49999999999993));
#535=CARTESIAN_POINT('',(44.7,8.,1.49999999999993));
#536=CARTESIAN_POINT('',(44.7,16.,1.49999999999993));
#537=CARTESIAN_POINT('',(39.3359455543377,6.70918516554721,1.49999999999993));
#538=CARTESIAN_POINT('',(47.7,21.1961524227066,1.49999999999993));
#539=CARTESIAN_POINT('',(47.7,15.65,1.49999999999993));
#540=CARTESIAN_POINT('',(47.7,21.3,1.49999999999993));
#541=CARTESIAN_POINT('',(38.6,30.4,1.49999999999993));
#542=CARTESIAN_POINT('',(37.7,31.3,1.49999999999993));
#543=CARTESIAN_POINT('',(23.85,31.3,1.49999999999993));
#544=CARTESIAN_POINT('',(9.99999999999999,31.3,1.49999999999993));
#545=CARTESIAN_POINT('',(9.09999999999999,30.4,1.49999999999993));
#546=CARTESIAN_POINT('',(-1.38777878078145E-014,21.3,1.49999999999993));
#547=CARTESIAN_POINT('',(-1.38777878078145E-014,15.65,1.49999999999993));
#548=CARTESIAN_POINT('',(-1.38777878078145E-014,21.1961524227066,1.49999999999993));
#549=CARTESIAN_POINT('',(8.36405444566229,6.70918516554721,1.49999999999993));
#550=CARTESIAN_POINT('',(3.,16.,1.49999999999993));
#551=CARTESIAN_POINT('',(3.,8.,1.49999999999993));
#552=CARTESIAN_POINT('',(3.,0.,1.49999999999993));
#553=CARTESIAN_POINT('',(23.85,0.,1.49999999999993));
#554=CARTESIAN_POINT('',(23.85,15.65,1.49999999999993));
#555=CARTESIAN_POINT('',(3.,0.,1.49999999999993));
#556=CARTESIAN_POINT('',(46.3,0.,1.49999999999993));
#557=CARTESIAN_POINT('',(23.85,0.,1.49999999999993));
#558=CARTESIAN_POINT('',(47.7,21.1961524227066,-7.26415455565288E-014));
#559=CARTESIAN_POINT('',(47.7,21.3,1.49999999999993));
#560=CARTESIAN_POINT('',(47.7,15.65,1.49999999999993));
#561=CARTESIAN_POINT('',(37.7,31.3,1.49999999999993));
#562=CARTESIAN_POINT('',(9.99999999999999,31.3,1.49999999999993));
#563=CARTESIAN_POINT('',(23.85,31.3,1.49999999999993));
#564=CARTESIAN_POINT('',(-1.38777878078145E-014,21.1961524227066,1.49999999999993));
#565=CARTESIAN_POINT('',(-1.38777878078145E-014,21.3,1.49999999999993));
#566=CARTESIAN_POINT('',(-1.38777878078145E-014,15.65,1.49999999999993));
#567=CARTESIAN_POINT('',(37.7,31.3,1.49999999999993));
#568=CARTESIAN_POINT('',(-1.38777878078145E-014,21.3,1.49999999999993));
#569=CARTESIAN_POINT('',(44.7,4.15020753820971,1.49999999999993));
#570=CARTESIAN_POINT('',(44.7,16.,1.49999999999993));
#571=CARTESIAN_POINT('',(44.7,8.,1.49999999999993));
#572=CARTESIAN_POINT('',(3.,16.,1.49999999999993));
#573=CARTESIAN_POINT('',(3.,8.,1.49999999999993));
#574=CARTESIAN_POINT('',(2.99999999999999,16.,1.49999999999993));
#575=CARTESIAN_POINT('',(47.7,21.1961524227066,1.49999999999993));
#576=CARTESIAN_POINT('',(46.3,2.16744008696437,1.49999999999993));
#577=CARTESIAN_POINT('',(46.3,1.725,1.49999999999993));
#578=CARTESIAN_POINT('',(45.6420201433257,3.10713270775027,0.749999999999927));
#579=CARTESIAN_POINT('',(45.3579798566743,3.2105149174238,0.749999999999927));
#580=CARTESIAN_POINT('',(44.7,3.45,0.749999999999927));
#581=CARTESIAN_POINT('',(45.3,2.16744008696437,0.749999999999927));
#582=CARTESIAN_POINT('',(45.7,4.15020753820971,1.49999999999993));
#583=(
GEOMETRIC_REPRESENTATION_CONTEXT(3)
GLOBAL_UNCERTAINTY_ASSIGNED_CONTEXT((#584))
GLOBAL_UNIT_ASSIGNED_CONTEXT((#590,#586,#585))
REPRESENTATION_CONTEXT('2001_AP25_10_iso','TOP_LEVEL_ASSEMBLY_PART')
);
#584=UNCERTAINTY_MEASURE_WITH_UNIT(LENGTH_MEASURE(2.E-005),#590,
'DISTANCE_ACCURACY_VALUE','Maximum Tolerance applied to model');
#585=(
NAMED_UNIT(*)
SI_UNIT($,.STERADIAN.)
SOLID_ANGLE_UNIT()
);
#586=(
CONVERSION_BASED_UNIT('DEGREE',#588)
NAMED_UNIT(#587)
PLANE_ANGLE_UNIT()
);
#587=DIMENSIONAL_EXPONENTS(0.,0.,0.,0.,0.,0.,0.);
#588=PLANE_ANGLE_MEASURE_WITH_UNIT(PLANE_ANGLE_MEASURE(0.0174532925),#589);
#589=(
NAMED_UNIT(*)
PLANE_ANGLE_UNIT()
SI_UNIT($,.RADIAN.)
);
#590=(
LENGTH_UNIT()
NAMED_UNIT(*)
SI_UNIT(.MILLI.,.METRE.)
);
ENDSEC;
END-ISO-10303-21;
