ISO-10303-21;
HEADER;
/* Generated by software containing ST-Developer
 * from STEP Tools, Inc. (www.steptools.com) 
 */
/* OPTION: using custom schema-name function */

FILE_DESCRIPTION(
/* description */ (''),
/* implementation_level */ '2;1');

FILE_NAME(
/* name */ '28800_6_28800_6_KDS-DES-2X10_5_5.stp',
/* time_stamp */ '2020-04-16T12:53:39+02:00',
/* author */ (''),
/* organization */ (''),
/* preprocessor_version */ 'ST-DEVELOPER v16.7',
/* originating_system */ 'SIEMENS PLM Software NX 12.0',
/* authorisation */ '');

FILE_SCHEMA (('AUTOMOTIVE_DESIGN { 1 0 10303 214 3 1 1 1 }'));
ENDSEC;

DATA;
#10=SHAPE_REPRESENTATION_RELATIONSHIP('None',
'relationship between 28800_6_KDS-DES-2X10_5-None and 28800_6_KDS-DES-2X10_5-None',#22,#11);
#11=ADVANCED_BREP_SHAPE_REPRESENTATION('28800_6_KDS-DES-2X10_5-None',(#32),#653);
#12=SHAPE_DEFINITION_REPRESENTATION(#13,#22);
#13=PRODUCT_DEFINITION_SHAPE('','',#14);
#14=PRODUCT_DEFINITION(' ','',#16,#15);
#15=PRODUCT_DEFINITION_CONTEXT('part definition',#21,'design');
#16=PRODUCT_DEFINITION_FORMATION_WITH_SPECIFIED_SOURCE(' ',' ',#18,
 .NOT_KNOWN.);
#17=PRODUCT_RELATED_PRODUCT_CATEGORY('part','',(#18));
#18=PRODUCT('28800_6_KDS-DES-2X10_5','28800_6_KDS-DES-2X10_5',' ',(#19));
#19=PRODUCT_CONTEXT(' ',#21,'mechanical');
#20=APPLICATION_PROTOCOL_DEFINITION('international standard',
'automotive_design',2010,#21);
#21=APPLICATION_CONTEXT(
'core data for automotive mechanical design processes');
#22=SHAPE_REPRESENTATION('28800_6_KDS-DES-2X10_5-None',(#396),#653);
#23=PRESENTATION_LAYER_ASSIGNMENT('1','Layer 1',(#32));
#24=STYLED_ITEM('',(#25),#32);
#25=PRESENTATION_STYLE_ASSIGNMENT((#26));
#26=SURFACE_STYLE_USAGE(.BOTH.,#27);
#27=SURFACE_SIDE_STYLE('',(#28));
#28=SURFACE_STYLE_FILL_AREA(#29);
#29=FILL_AREA_STYLE('',(#30));
#30=FILL_AREA_STYLE_COLOUR('',#31);
#31=COLOUR_RGB('Cornflower',0.,0.6,1.);
#32=BREP_WITH_VOIDS('',#35,(#33,#34));
#33=ORIENTED_CLOSED_SHELL('',*,#36,.F.);
#34=ORIENTED_CLOSED_SHELL('',*,#37,.F.);
#35=CLOSED_SHELL('',(#62,#63,#64,#65,#66,#67,#68,#69,#70,#71,#72,#73,#74,
#75,#76,#77,#78,#79,#80,#81,#82));
#36=CLOSED_SHELL('',(#83,#84,#85));
#37=CLOSED_SHELL('',(#86,#87,#88));
#38=CYLINDRICAL_SURFACE('',#423,5.24999999999998);
#39=CYLINDRICAL_SURFACE('',#426,5.24999999999998);
#40=CYLINDRICAL_SURFACE('',#432,5.24999999999999);
#41=CYLINDRICAL_SURFACE('',#438,5.24999999999999);
#42=TOROIDAL_SURFACE('',#408,1.2340994519018,0.5);
#43=TOROIDAL_SURFACE('',#413,1.2340994519018,0.5);
#44=SPHERICAL_SURFACE('',#405,1.25);
#45=SPHERICAL_SURFACE('',#407,26.831141538332);
#46=SPHERICAL_SURFACE('',#410,1.25);
#47=SPHERICAL_SURFACE('',#412,26.831141538332);
#48=SPHERICAL_SURFACE('',#430,27.8125000000001);
#49=SPHERICAL_SURFACE('',#436,27.8125000000001);
#50=FACE_OUTER_BOUND('',#187,.T.);
#51=FACE_OUTER_BOUND('',#188,.T.);
#52=FACE_OUTER_BOUND('',#189,.T.);
#53=FACE_OUTER_BOUND('',#190,.T.);
#54=FACE_OUTER_BOUND('',#191,.T.);
#55=FACE_OUTER_BOUND('',#196,.T.);
#56=FACE_OUTER_BOUND('',#203,.T.);
#57=FACE_OUTER_BOUND('',#207,.T.);
#58=FACE_OUTER_BOUND('',#208,.T.);
#59=FACE_OUTER_BOUND('',#209,.T.);
#60=FACE_OUTER_BOUND('',#212,.T.);
#61=FACE_OUTER_BOUND('',#215,.T.);
#62=ADVANCED_FACE('',(#152,#153,#154),#89,.T.);
#63=ADVANCED_FACE('',(#50),#90,.F.);
#64=ADVANCED_FACE('',(#51),#91,.F.);
#65=ADVANCED_FACE('',(#52),#92,.F.);
#66=ADVANCED_FACE('',(#53),#93,.F.);
#67=ADVANCED_FACE('',(#54),#44,.F.);
#68=ADVANCED_FACE('',(#155,#156),#45,.F.);
#69=ADVANCED_FACE('',(#157,#158),#42,.T.);
#70=ADVANCED_FACE('',(#55),#46,.F.);
#71=ADVANCED_FACE('',(#159,#160),#47,.F.);
#72=ADVANCED_FACE('',(#161,#162),#43,.T.);
#73=ADVANCED_FACE('',(#163,#164),#94,.T.);
#74=ADVANCED_FACE('',(#56),#95,.T.);
#75=ADVANCED_FACE('',(#165,#166,#167),#96,.T.);
#76=ADVANCED_FACE('',(#57),#97,.T.);
#77=ADVANCED_FACE('',(#58),#98,.T.);
#78=ADVANCED_FACE('',(#59),#99,.T.);
#79=ADVANCED_FACE('',(#168,#169),#38,.F.);
#80=ADVANCED_FACE('',(#60),#100,.F.);
#81=ADVANCED_FACE('',(#170,#171),#39,.F.);
#82=ADVANCED_FACE('',(#61),#101,.F.);
#83=ADVANCED_FACE('',(#172,#173),#48,.F.);
#84=ADVANCED_FACE('',(#174,#175),#40,.T.);
#85=ADVANCED_FACE('',(#176,#177),#102,.F.);
#86=ADVANCED_FACE('',(#178,#179),#49,.F.);
#87=ADVANCED_FACE('',(#180,#181),#41,.T.);
#88=ADVANCED_FACE('',(#182,#183),#103,.F.);
#89=PLANE('',#399);
#90=PLANE('',#400);
#91=PLANE('',#401);
#92=PLANE('',#402);
#93=PLANE('',#403);
#94=PLANE('',#414);
#95=PLANE('',#415);
#96=PLANE('',#418);
#97=PLANE('',#419);
#98=PLANE('',#420);
#99=PLANE('',#421);
#100=PLANE('',#424);
#101=PLANE('',#427);
#102=PLANE('',#433);
#103=PLANE('',#439);
#104=LINE('',#557,#128);
#105=LINE('',#560,#129);
#106=LINE('',#562,#130);
#107=LINE('',#564,#131);
#108=LINE('',#566,#132);
#109=LINE('',#569,#133);
#110=LINE('',#570,#134);
#111=LINE('',#572,#135);
#112=LINE('',#574,#136);
#113=LINE('',#576,#137);
#114=LINE('',#578,#138);
#115=LINE('',#580,#139);
#116=LINE('',#596,#140);
#117=LINE('',#599,#141);
#118=LINE('',#601,#142);
#119=LINE('',#603,#143);
#120=LINE('',#605,#144);
#121=LINE('',#607,#145);
#122=LINE('',#609,#146);
#123=LINE('',#615,#147);
#124=LINE('',#617,#148);
#125=LINE('',#619,#149);
#126=LINE('',#621,#150);
#127=LINE('',#623,#151);
#128=VECTOR('',#446,1.);
#129=VECTOR('',#447,1.);
#130=VECTOR('',#448,1.);
#131=VECTOR('',#449,1.);
#132=VECTOR('',#452,1.);
#133=VECTOR('',#453,1.);
#134=VECTOR('',#454,1.);
#135=VECTOR('',#457,1.);
#136=VECTOR('',#458,1.);
#137=VECTOR('',#461,1.);
#138=VECTOR('',#462,1.);
#139=VECTOR('',#465,1.);
#140=VECTOR('',#488,1.);
#141=VECTOR('',#489,1.);
#142=VECTOR('',#490,1.);
#143=VECTOR('',#491,1.);
#144=VECTOR('',#494,1.);
#145=VECTOR('',#495,1.);
#146=VECTOR('',#496,1.);
#147=VECTOR('',#503,1.);
#148=VECTOR('',#504,1.);
#149=VECTOR('',#505,1.);
#150=VECTOR('',#508,1.);
#151=VECTOR('',#511,1.);
#152=FACE_BOUND('',#184,.T.);
#153=FACE_BOUND('',#185,.T.);
#154=FACE_BOUND('',#186,.T.);
#155=FACE_BOUND('',#192,.T.);
#156=FACE_BOUND('',#193,.T.);
#157=FACE_BOUND('',#194,.T.);
#158=FACE_BOUND('',#195,.T.);
#159=FACE_BOUND('',#197,.T.);
#160=FACE_BOUND('',#198,.T.);
#161=FACE_BOUND('',#199,.T.);
#162=FACE_BOUND('',#200,.T.);
#163=FACE_BOUND('',#201,.T.);
#164=FACE_BOUND('',#202,.T.);
#165=FACE_BOUND('',#204,.T.);
#166=FACE_BOUND('',#205,.T.);
#167=FACE_BOUND('',#206,.T.);
#168=FACE_BOUND('',#210,.T.);
#169=FACE_BOUND('',#211,.T.);
#170=FACE_BOUND('',#213,.T.);
#171=FACE_BOUND('',#214,.T.);
#172=FACE_BOUND('',#216,.F.);
#173=FACE_BOUND('',#217,.F.);
#174=FACE_BOUND('',#218,.F.);
#175=FACE_BOUND('',#219,.F.);
#176=FACE_BOUND('',#220,.F.);
#177=FACE_BOUND('',#221,.F.);
#178=FACE_BOUND('',#222,.F.);
#179=FACE_BOUND('',#223,.F.);
#180=FACE_BOUND('',#224,.F.);
#181=FACE_BOUND('',#225,.F.);
#182=FACE_BOUND('',#226,.F.);
#183=FACE_BOUND('',#227,.F.);
#184=EDGE_LOOP('',(#228));
#185=EDGE_LOOP('',(#229));
#186=EDGE_LOOP('',(#230,#231,#232,#233));
#187=EDGE_LOOP('',(#234,#235,#236,#237));
#188=EDGE_LOOP('',(#238,#239,#240,#241));
#189=EDGE_LOOP('',(#242,#243,#244,#245));
#190=EDGE_LOOP('',(#246,#247,#248,#249));
#191=EDGE_LOOP('',(#250));
#192=EDGE_LOOP('',(#251));
#193=EDGE_LOOP('',(#252));
#194=EDGE_LOOP('',(#253));
#195=EDGE_LOOP('',(#254));
#196=EDGE_LOOP('',(#255));
#197=EDGE_LOOP('',(#256));
#198=EDGE_LOOP('',(#257));
#199=EDGE_LOOP('',(#258));
#200=EDGE_LOOP('',(#259));
#201=EDGE_LOOP('',(#260,#261,#262,#263));
#202=EDGE_LOOP('',(#264,#265,#266,#267));
#203=EDGE_LOOP('',(#268,#269,#270,#271));
#204=EDGE_LOOP('',(#272));
#205=EDGE_LOOP('',(#273));
#206=EDGE_LOOP('',(#274,#275,#276,#277));
#207=EDGE_LOOP('',(#278,#279,#280,#281));
#208=EDGE_LOOP('',(#282,#283,#284,#285));
#209=EDGE_LOOP('',(#286,#287,#288,#289));
#210=EDGE_LOOP('',(#290));
#211=EDGE_LOOP('',(#291));
#212=EDGE_LOOP('',(#292));
#213=EDGE_LOOP('',(#293));
#214=EDGE_LOOP('',(#294));
#215=EDGE_LOOP('',(#295));
#216=EDGE_LOOP('',(#296));
#217=EDGE_LOOP('',(#297));
#218=EDGE_LOOP('',(#298));
#219=EDGE_LOOP('',(#299));
#220=EDGE_LOOP('',(#300));
#221=EDGE_LOOP('',(#301));
#222=EDGE_LOOP('',(#302));
#223=EDGE_LOOP('',(#303));
#224=EDGE_LOOP('',(#304));
#225=EDGE_LOOP('',(#305));
#226=EDGE_LOOP('',(#306));
#227=EDGE_LOOP('',(#307));
#228=ORIENTED_EDGE('',*,*,#340,.F.);
#229=ORIENTED_EDGE('',*,*,#341,.F.);
#230=ORIENTED_EDGE('',*,*,#342,.T.);
#231=ORIENTED_EDGE('',*,*,#343,.T.);
#232=ORIENTED_EDGE('',*,*,#344,.T.);
#233=ORIENTED_EDGE('',*,*,#345,.T.);
#234=ORIENTED_EDGE('',*,*,#346,.F.);
#235=ORIENTED_EDGE('',*,*,#347,.T.);
#236=ORIENTED_EDGE('',*,*,#342,.F.);
#237=ORIENTED_EDGE('',*,*,#348,.F.);
#238=ORIENTED_EDGE('',*,*,#343,.F.);
#239=ORIENTED_EDGE('',*,*,#347,.F.);
#240=ORIENTED_EDGE('',*,*,#349,.F.);
#241=ORIENTED_EDGE('',*,*,#350,.T.);
#242=ORIENTED_EDGE('',*,*,#351,.F.);
#243=ORIENTED_EDGE('',*,*,#352,.T.);
#244=ORIENTED_EDGE('',*,*,#344,.F.);
#245=ORIENTED_EDGE('',*,*,#350,.F.);
#246=ORIENTED_EDGE('',*,*,#353,.F.);
#247=ORIENTED_EDGE('',*,*,#348,.T.);
#248=ORIENTED_EDGE('',*,*,#345,.F.);
#249=ORIENTED_EDGE('',*,*,#352,.F.);
#250=ORIENTED_EDGE('',*,*,#354,.T.);
#251=ORIENTED_EDGE('',*,*,#355,.T.);
#252=ORIENTED_EDGE('',*,*,#341,.T.);
#253=ORIENTED_EDGE('',*,*,#354,.F.);
#254=ORIENTED_EDGE('',*,*,#355,.F.);
#255=ORIENTED_EDGE('',*,*,#356,.T.);
#256=ORIENTED_EDGE('',*,*,#357,.T.);
#257=ORIENTED_EDGE('',*,*,#340,.T.);
#258=ORIENTED_EDGE('',*,*,#356,.F.);
#259=ORIENTED_EDGE('',*,*,#357,.F.);
#260=ORIENTED_EDGE('',*,*,#358,.F.);
#261=ORIENTED_EDGE('',*,*,#359,.F.);
#262=ORIENTED_EDGE('',*,*,#360,.F.);
#263=ORIENTED_EDGE('',*,*,#361,.F.);
#264=ORIENTED_EDGE('',*,*,#349,.T.);
#265=ORIENTED_EDGE('',*,*,#346,.T.);
#266=ORIENTED_EDGE('',*,*,#353,.T.);
#267=ORIENTED_EDGE('',*,*,#351,.T.);
#268=ORIENTED_EDGE('',*,*,#362,.F.);
#269=ORIENTED_EDGE('',*,*,#361,.T.);
#270=ORIENTED_EDGE('',*,*,#363,.T.);
#271=ORIENTED_EDGE('',*,*,#364,.F.);
#272=ORIENTED_EDGE('',*,*,#365,.F.);
#273=ORIENTED_EDGE('',*,*,#366,.F.);
#274=ORIENTED_EDGE('',*,*,#367,.T.);
#275=ORIENTED_EDGE('',*,*,#364,.T.);
#276=ORIENTED_EDGE('',*,*,#368,.T.);
#277=ORIENTED_EDGE('',*,*,#369,.T.);
#278=ORIENTED_EDGE('',*,*,#370,.F.);
#279=ORIENTED_EDGE('',*,*,#358,.T.);
#280=ORIENTED_EDGE('',*,*,#362,.T.);
#281=ORIENTED_EDGE('',*,*,#367,.F.);
#282=ORIENTED_EDGE('',*,*,#363,.F.);
#283=ORIENTED_EDGE('',*,*,#360,.T.);
#284=ORIENTED_EDGE('',*,*,#371,.T.);
#285=ORIENTED_EDGE('',*,*,#368,.F.);
#286=ORIENTED_EDGE('',*,*,#371,.F.);
#287=ORIENTED_EDGE('',*,*,#359,.T.);
#288=ORIENTED_EDGE('',*,*,#370,.T.);
#289=ORIENTED_EDGE('',*,*,#369,.F.);
#290=ORIENTED_EDGE('',*,*,#366,.T.);
#291=ORIENTED_EDGE('',*,*,#372,.F.);
#292=ORIENTED_EDGE('',*,*,#372,.T.);
#293=ORIENTED_EDGE('',*,*,#365,.T.);
#294=ORIENTED_EDGE('',*,*,#373,.F.);
#295=ORIENTED_EDGE('',*,*,#373,.T.);
#296=ORIENTED_EDGE('',*,*,#374,.T.);
#297=ORIENTED_EDGE('',*,*,#375,.T.);
#298=ORIENTED_EDGE('',*,*,#376,.F.);
#299=ORIENTED_EDGE('',*,*,#375,.F.);
#300=ORIENTED_EDGE('',*,*,#374,.F.);
#301=ORIENTED_EDGE('',*,*,#376,.T.);
#302=ORIENTED_EDGE('',*,*,#377,.T.);
#303=ORIENTED_EDGE('',*,*,#378,.T.);
#304=ORIENTED_EDGE('',*,*,#379,.F.);
#305=ORIENTED_EDGE('',*,*,#378,.F.);
#306=ORIENTED_EDGE('',*,*,#377,.F.);
#307=ORIENTED_EDGE('',*,*,#379,.T.);
#308=VERTEX_POINT('',#554);
#309=VERTEX_POINT('',#556);
#310=VERTEX_POINT('',#558);
#311=VERTEX_POINT('',#559);
#312=VERTEX_POINT('',#561);
#313=VERTEX_POINT('',#563);
#314=VERTEX_POINT('',#567);
#315=VERTEX_POINT('',#568);
#316=VERTEX_POINT('',#573);
#317=VERTEX_POINT('',#577);
#318=VERTEX_POINT('',#583);
#319=VERTEX_POINT('',#586);
#320=VERTEX_POINT('',#590);
#321=VERTEX_POINT('',#593);
#322=VERTEX_POINT('',#597);
#323=VERTEX_POINT('',#598);
#324=VERTEX_POINT('',#600);
#325=VERTEX_POINT('',#602);
#326=VERTEX_POINT('',#606);
#327=VERTEX_POINT('',#608);
#328=VERTEX_POINT('',#612);
#329=VERTEX_POINT('',#614);
#330=VERTEX_POINT('',#616);
#331=VERTEX_POINT('',#618);
#332=VERTEX_POINT('',#627);
#333=VERTEX_POINT('',#631);
#334=VERTEX_POINT('',#635);
#335=VERTEX_POINT('',#637);
#336=VERTEX_POINT('',#640);
#337=VERTEX_POINT('',#644);
#338=VERTEX_POINT('',#646);
#339=VERTEX_POINT('',#649);
#340=EDGE_CURVE('',#308,#308,#380,.T.);
#341=EDGE_CURVE('',#309,#309,#381,.T.);
#342=EDGE_CURVE('',#310,#311,#104,.T.);
#343=EDGE_CURVE('',#311,#312,#105,.T.);
#344=EDGE_CURVE('',#312,#313,#106,.T.);
#345=EDGE_CURVE('',#313,#310,#107,.T.);
#346=EDGE_CURVE('',#314,#315,#108,.T.);
#347=EDGE_CURVE('',#314,#311,#109,.T.);
#348=EDGE_CURVE('',#315,#310,#110,.T.);
#349=EDGE_CURVE('',#316,#314,#111,.T.);
#350=EDGE_CURVE('',#316,#312,#112,.T.);
#351=EDGE_CURVE('',#317,#316,#113,.T.);
#352=EDGE_CURVE('',#317,#313,#114,.T.);
#353=EDGE_CURVE('',#315,#317,#115,.T.);
#354=EDGE_CURVE('',#318,#318,#382,.T.);
#355=EDGE_CURVE('',#319,#319,#383,.T.);
#356=EDGE_CURVE('',#320,#320,#384,.T.);
#357=EDGE_CURVE('',#321,#321,#385,.T.);
#358=EDGE_CURVE('',#322,#323,#116,.T.);
#359=EDGE_CURVE('',#324,#322,#117,.T.);
#360=EDGE_CURVE('',#325,#324,#118,.T.);
#361=EDGE_CURVE('',#323,#325,#119,.T.);
#362=EDGE_CURVE('',#323,#326,#120,.T.);
#363=EDGE_CURVE('',#325,#327,#121,.T.);
#364=EDGE_CURVE('',#326,#327,#122,.T.);
#365=EDGE_CURVE('',#328,#328,#386,.T.);
#366=EDGE_CURVE('',#329,#329,#387,.T.);
#367=EDGE_CURVE('',#330,#326,#123,.T.);
#368=EDGE_CURVE('',#327,#331,#124,.T.);
#369=EDGE_CURVE('',#331,#330,#125,.T.);
#370=EDGE_CURVE('',#322,#330,#126,.T.);
#371=EDGE_CURVE('',#324,#331,#127,.T.);
#372=EDGE_CURVE('',#332,#332,#388,.T.);
#373=EDGE_CURVE('',#333,#333,#389,.T.);
#374=EDGE_CURVE('',#334,#334,#390,.T.);
#375=EDGE_CURVE('',#335,#335,#391,.T.);
#376=EDGE_CURVE('',#336,#336,#392,.T.);
#377=EDGE_CURVE('',#337,#337,#393,.T.);
#378=EDGE_CURVE('',#338,#338,#394,.T.);
#379=EDGE_CURVE('',#339,#339,#395,.T.);
#380=CIRCLE('',#397,5.24999999999998);
#381=CIRCLE('',#398,5.24999999999998);
#382=CIRCLE('',#404,0.881499608501277);
#383=CIRCLE('',#406,1.21152265154806);
#384=CIRCLE('',#409,0.881499608501277);
#385=CIRCLE('',#411,1.21152265154806);
#386=CIRCLE('',#416,5.24999999999998);
#387=CIRCLE('',#417,5.24999999999998);
#388=CIRCLE('',#422,5.24999999999998);
#389=CIRCLE('',#425,5.24999999999998);
#390=CIRCLE('',#428,4.07400294550705);
#391=CIRCLE('',#429,5.24999999999998);
#392=CIRCLE('',#431,5.24999999999999);
#393=CIRCLE('',#434,4.07400294550719);
#394=CIRCLE('',#435,5.24999999999998);
#395=CIRCLE('',#437,5.24999999999999);
#396=AXIS2_PLACEMENT_3D('',#552,#440,#441);
#397=AXIS2_PLACEMENT_3D('',#553,#442,#443);
#398=AXIS2_PLACEMENT_3D('',#555,#444,#445);
#399=AXIS2_PLACEMENT_3D('',#565,#450,#451);
#400=AXIS2_PLACEMENT_3D('',#571,#455,#456);
#401=AXIS2_PLACEMENT_3D('',#575,#459,#460);
#402=AXIS2_PLACEMENT_3D('',#579,#463,#464);
#403=AXIS2_PLACEMENT_3D('',#581,#466,#467);
#404=AXIS2_PLACEMENT_3D('',#582,#468,#469);
#405=AXIS2_PLACEMENT_3D('',#584,#470,#471);
#406=AXIS2_PLACEMENT_3D('',#585,#472,#473);
#407=AXIS2_PLACEMENT_3D('',#587,#474,#475);
#408=AXIS2_PLACEMENT_3D('',#588,#476,#477);
#409=AXIS2_PLACEMENT_3D('',#589,#478,#479);
#410=AXIS2_PLACEMENT_3D('',#591,#480,#481);
#411=AXIS2_PLACEMENT_3D('',#592,#482,#483);
#412=AXIS2_PLACEMENT_3D('',#594,#484,#485);
#413=AXIS2_PLACEMENT_3D('',#595,#486,#487);
#414=AXIS2_PLACEMENT_3D('',#604,#492,#493);
#415=AXIS2_PLACEMENT_3D('',#610,#497,#498);
#416=AXIS2_PLACEMENT_3D('',#611,#499,#500);
#417=AXIS2_PLACEMENT_3D('',#613,#501,#502);
#418=AXIS2_PLACEMENT_3D('',#620,#506,#507);
#419=AXIS2_PLACEMENT_3D('',#622,#509,#510);
#420=AXIS2_PLACEMENT_3D('',#624,#512,#513);
#421=AXIS2_PLACEMENT_3D('',#625,#514,#515);
#422=AXIS2_PLACEMENT_3D('',#626,#516,#517);
#423=AXIS2_PLACEMENT_3D('',#628,#518,#519);
#424=AXIS2_PLACEMENT_3D('',#629,#520,#521);
#425=AXIS2_PLACEMENT_3D('',#630,#522,#523);
#426=AXIS2_PLACEMENT_3D('',#632,#524,#525);
#427=AXIS2_PLACEMENT_3D('',#633,#526,#527);
#428=AXIS2_PLACEMENT_3D('',#634,#528,#529);
#429=AXIS2_PLACEMENT_3D('',#636,#530,#531);
#430=AXIS2_PLACEMENT_3D('',#638,#532,#533);
#431=AXIS2_PLACEMENT_3D('',#639,#534,#535);
#432=AXIS2_PLACEMENT_3D('',#641,#536,#537);
#433=AXIS2_PLACEMENT_3D('',#642,#538,#539);
#434=AXIS2_PLACEMENT_3D('',#643,#540,#541);
#435=AXIS2_PLACEMENT_3D('',#645,#542,#543);
#436=AXIS2_PLACEMENT_3D('',#647,#544,#545);
#437=AXIS2_PLACEMENT_3D('',#648,#546,#547);
#438=AXIS2_PLACEMENT_3D('',#650,#548,#549);
#439=AXIS2_PLACEMENT_3D('',#651,#550,#551);
#440=DIRECTION('',(0.,0.,1.));
#441=DIRECTION('',(1.,0.,0.));
#442=DIRECTION('',(1.,1.17145536458252E-15,1.41553435639707E-15));
#443=DIRECTION('',(1.32169407693472E-15,-1.,1.76085023486834E-30));
#444=DIRECTION('',(1.,1.17145536458252E-15,5.60195620260368E-31));
#445=DIRECTION('',(1.32169407693472E-15,-1.,1.11022302462516E-16));
#446=DIRECTION('',(0.,0.,-1.));
#447=DIRECTION('',(0.,1.,0.));
#448=DIRECTION('',(0.,0.,1.));
#449=DIRECTION('',(0.,-1.,0.));
#450=DIRECTION('',(1.,0.,0.));
#451=DIRECTION('',(0.,0.,-1.));
#452=DIRECTION('',(0.,0.,1.));
#453=DIRECTION('',(1.,0.,0.));
#454=DIRECTION('',(1.,0.,0.));
#455=DIRECTION('',(0.,1.,0.));
#456=DIRECTION('',(0.,0.,1.));
#457=DIRECTION('',(0.,-1.,0.));
#458=DIRECTION('',(1.,0.,0.));
#459=DIRECTION('',(0.,0.,1.));
#460=DIRECTION('',(1.,0.,0.));
#461=DIRECTION('',(0.,0.,-1.));
#462=DIRECTION('',(1.,0.,0.));
#463=DIRECTION('',(0.,-1.,0.));
#464=DIRECTION('',(0.,0.,-1.));
#465=DIRECTION('',(0.,1.,0.));
#466=DIRECTION('',(0.,0.,-1.));
#467=DIRECTION('',(-1.,0.,0.));
#468=DIRECTION('',(1.,5.324810669665E-16,6.31136017996068E-31));
#469=DIRECTION('',(0.,-0.999999999999999,1.11022302462516E-16));
#470=DIRECTION('',(1.,1.38777878078145E-15,6.16297582203917E-31));
#471=DIRECTION('',(0.,0.999999999999999,-1.11022302462516E-16));
#472=DIRECTION('',(-1.,-5.324810669665E-16,-6.31136017996068E-31));
#473=DIRECTION('',(0.,-0.999999999999999,1.11022302462516E-16));
#474=DIRECTION('',(1.,1.22841385620779E-15,5.59881268739873E-31));
#475=DIRECTION('',(-1.29306721706083E-15,1.,-1.11022302462516E-16));
#476=DIRECTION('',(-1.,-5.324810669665E-16,-6.31136017996068E-31));
#477=DIRECTION('',(0.,1.,-1.11022302462516E-16));
#478=DIRECTION('',(1.,5.324810669665E-16,1.41553435639707E-15));
#479=DIRECTION('',(0.,-0.999999999999999,0.));
#480=DIRECTION('',(1.,1.38777878078145E-15,1.41553435639707E-15));
#481=DIRECTION('',(0.,0.999999999999999,-2.46519032881567E-30));
#482=DIRECTION('',(-1.,-5.324810669665E-16,-1.41553435639707E-15));
#483=DIRECTION('',(0.,-0.999999999999999,0.));
#484=DIRECTION('',(1.,1.22841385620779E-15,1.41553435639707E-15));
#485=DIRECTION('',(-1.29306721706083E-15,1.,-1.8375590358642E-30));
#486=DIRECTION('',(-1.,-5.324810669665E-16,-1.41553435639707E-15));
#487=DIRECTION('',(0.,1.,0.));
#488=DIRECTION('',(0.,0.,1.));
#489=DIRECTION('',(0.,-1.,0.));
#490=DIRECTION('',(0.,0.,-1.));
#491=DIRECTION('',(0.,1.,0.));
#492=DIRECTION('',(1.,0.,0.));
#493=DIRECTION('',(0.,0.,-1.));
#494=DIRECTION('',(-0.998782765958718,-0.0348782627423746,0.0348782627423746));
#495=DIRECTION('',(-0.998782765958718,0.0348782627423746,0.0348782627423746));
#496=DIRECTION('',(0.,1.,0.));
#497=DIRECTION('',(0.0348994967025009,0.,0.999390827019096));
#498=DIRECTION('',(0.999390827019096,0.,-0.0348994967025009));
#499=DIRECTION('',(-1.,0.,0.));
#500=DIRECTION('',(0.,0.,1.));
#501=DIRECTION('',(-1.,0.,0.));
#502=DIRECTION('',(0.,0.,1.));
#503=DIRECTION('',(0.,0.,1.));
#504=DIRECTION('',(0.,0.,-1.));
#505=DIRECTION('',(0.,-1.,0.));
#506=DIRECTION('',(-1.,0.,0.));
#507=DIRECTION('',(0.,0.,1.));
#508=DIRECTION('',(-0.998782765958718,-0.0348782627423746,-0.0348782627423746));
#509=DIRECTION('',(0.0348994967025009,-0.999390827019096,0.));
#510=DIRECTION('',(0.999390827019096,0.0348994967025009,0.));
#511=DIRECTION('',(-0.998782765958718,0.0348782627423746,-0.0348782627423746));
#512=DIRECTION('',(0.0348994967025009,0.999390827019096,0.));
#513=DIRECTION('',(-0.999390827019096,0.0348994967025009,0.));
#514=DIRECTION('',(0.0348994967025009,0.,-0.999390827019096));
#515=DIRECTION('',(-0.999390827019096,0.,-0.0348994967025009));
#516=DIRECTION('',(-1.,-1.17145536458252E-15,-5.60195620260368E-31));
#517=DIRECTION('',(1.32169407693472E-15,-1.,1.22464679914735E-16));
#518=DIRECTION('',(1.,1.32169407693472E-15,5.43515772496024E-31));
#519=DIRECTION('',(-1.32169407693472E-15,1.,0.));
#520=DIRECTION('',(1.,1.17145536458252E-15,5.60195620260368E-31));
#521=DIRECTION('',(-1.17267306976032E-15,1.,0.));
#522=DIRECTION('',(-1.,-1.17145536458252E-15,-5.60195620260368E-31));
#523=DIRECTION('',(1.32169407693472E-15,-1.,1.22464679914735E-16));
#524=DIRECTION('',(1.,1.32169407693472E-15,5.43515772496024E-31));
#525=DIRECTION('',(-1.32169407693472E-15,1.,0.));
#526=DIRECTION('',(1.,1.17145536458252E-15,5.60195620260368E-31));
#527=DIRECTION('',(-1.17267306976032E-15,1.,0.));
#528=DIRECTION('',(1.,0.,0.));
#529=DIRECTION('',(0.,0.,-1.));
#530=DIRECTION('',(-1.,-1.17145536458252E-15,-1.41553435639707E-15));
#531=DIRECTION('',(1.32169407693472E-15,-1.,1.76085023486834E-30));
#532=DIRECTION('',(1.,1.24744160070242E-15,1.41553435639707E-15));
#533=DIRECTION('',(-1.24744160070242E-15,1.,-1.77272113532811E-30));
#534=DIRECTION('',(1.,0.,0.));
#535=DIRECTION('',(0.,0.,-1.));
#536=DIRECTION('',(1.,1.17145536458252E-15,1.41553435639707E-15));
#537=DIRECTION('',(1.17145536458252E-15,-1.,1.68748147508215E-30));
#538=DIRECTION('',(1.,0.,0.));
#539=DIRECTION('',(0.,0.,-1.));
#540=DIRECTION('',(1.,0.,0.));
#541=DIRECTION('',(0.,0.,-1.));
#542=DIRECTION('',(-1.,-1.17145536458252E-15,-5.60195620260368E-31));
#543=DIRECTION('',(1.32169407693472E-15,-1.,1.11022302462516E-16));
#544=DIRECTION('',(1.,1.24744160070242E-15,5.53975354790035E-31));
#545=DIRECTION('',(-1.24744160070242E-15,1.,-1.11022302462516E-16));
#546=DIRECTION('',(1.,0.,0.));
#547=DIRECTION('',(0.,0.,-1.));
#548=DIRECTION('',(1.,1.17145536458252E-15,5.60195620260368E-31));
#549=DIRECTION('',(1.17145536458252E-15,-1.,1.11022302462516E-16));
#550=DIRECTION('',(1.,0.,0.));
#551=DIRECTION('',(0.,0.,-1.));
#552=CARTESIAN_POINT('',(0.,0.,0.));
#553=CARTESIAN_POINT('',(17.7,-9.364338615332,2.68313149476284E-14));
#554=CARTESIAN_POINT('',(17.7,-14.614338615332,2.68313149476285E-14));
#555=CARTESIAN_POINT('',(17.7,9.36433861533204,1.77635683940026E-15));
#556=CARTESIAN_POINT('',(17.7,4.11433861533206,2.35922392732847E-15));
#557=CARTESIAN_POINT('',(17.7,-19.8000158459961,8.65));
#558=CARTESIAN_POINT('',(17.7,-19.8000158459961,8.65));
#559=CARTESIAN_POINT('',(17.7,-19.8000158459961,-8.65));
#560=CARTESIAN_POINT('',(17.7,-19.4430158459961,-8.65));
#561=CARTESIAN_POINT('',(17.7,19.8000158459961,-8.65));
#562=CARTESIAN_POINT('',(17.7,19.8000158459961,-8.65));
#563=CARTESIAN_POINT('',(17.7,19.8000158459961,8.65));
#564=CARTESIAN_POINT('',(17.7,19.4430158459961,8.65));
#565=CARTESIAN_POINT('',(17.7,0.,0.));
#566=CARTESIAN_POINT('',(16.5,-19.8000158459961,8.65));
#567=CARTESIAN_POINT('',(16.5,-19.8000158459961,-8.65));
#568=CARTESIAN_POINT('',(16.5,-19.8000158459961,8.65));
#569=CARTESIAN_POINT('',(17.7,-19.8000158459961,-8.65));
#570=CARTESIAN_POINT('',(17.7,-19.8000158459961,8.65));
#571=CARTESIAN_POINT('',(17.7,-19.8000158459961,8.65));
#572=CARTESIAN_POINT('',(16.5,-19.4430158459961,-8.65));
#573=CARTESIAN_POINT('',(16.5,19.8000158459961,-8.65));
#574=CARTESIAN_POINT('',(17.7,19.8000158459961,-8.65));
#575=CARTESIAN_POINT('',(17.7,-19.4430158459961,-8.65));
#576=CARTESIAN_POINT('',(16.5,19.8000158459961,-8.65));
#577=CARTESIAN_POINT('',(16.5,19.8000158459961,8.65));
#578=CARTESIAN_POINT('',(17.7,19.8000158459961,8.65));
#579=CARTESIAN_POINT('',(17.7,19.8000158459961,-8.65));
#580=CARTESIAN_POINT('',(16.5,19.4430158459961,8.65));
#581=CARTESIAN_POINT('',(17.7,19.4430158459961,8.65));
#582=CARTESIAN_POINT('',(17.0637390676487,9.36433861533202,1.77635683940026E-15));
#583=CARTESIAN_POINT('',(17.0637390676487,8.48283900683074,1.87422295555588E-15));
#584=CARTESIAN_POINT('',(17.95,9.36433861533202,1.77635683940026E-15));
#585=CARTESIAN_POINT('',(17.2087247227226,9.36433861533202,1.77635683940026E-15));
#586=CARTESIAN_POINT('',(17.2087247227226,8.15281596378396,1.91086287366062E-15));
#587=CARTESIAN_POINT('',(44.0125000000001,9.36433861533203,1.77635683940028E-15));
#588=CARTESIAN_POINT('',(16.7092346947082,9.36433861533202,1.77635683940026E-15));
#589=CARTESIAN_POINT('',(17.0637390676488,-9.36433861533202,2.5930665738252E-14));
#590=CARTESIAN_POINT('',(17.0637390676488,-10.2458382238333,2.5930665738252E-14));
#591=CARTESIAN_POINT('',(17.95,-9.36433861533202,2.71851985367277E-14));
#592=CARTESIAN_POINT('',(17.2087247227226,-9.36433861533202,2.61358979141938E-14));
#593=CARTESIAN_POINT('',(17.2087247227226,-10.5758612668801,2.61358979141938E-14));
#594=CARTESIAN_POINT('',(44.0125000000001,-9.36433861533201,6.40775627003266E-14));
#595=CARTESIAN_POINT('',(16.7092346947082,-9.36433861533202,2.54288526188617E-14));
#596=CARTESIAN_POINT('',(16.5,-20.5238073033862,-9.95000000000001));
#597=CARTESIAN_POINT('',(16.5,-20.5238073033861,-9.37380730338617));
#598=CARTESIAN_POINT('',(16.5,-20.5238073033862,9.37380730338617));
#599=CARTESIAN_POINT('',(16.5,21.1,-9.37380730338617));
#600=CARTESIAN_POINT('',(16.5,20.5238073033862,-9.37380730338617));
#601=CARTESIAN_POINT('',(16.5,20.5238073033862,9.95000000000001));
#602=CARTESIAN_POINT('',(16.5,20.5238073033862,9.37380730338617));
#603=CARTESIAN_POINT('',(16.5,-21.1,9.37380730338617));
#604=CARTESIAN_POINT('',(16.5,0.,0.));
#605=CARTESIAN_POINT('',(0.69323257389991,-21.0757917850827,9.92579178508268));
#606=CARTESIAN_POINT('',(0.,-21.1,9.95000000000001));
#607=CARTESIAN_POINT('',(1.47007108636061,21.0486639864567,9.89866398645673));
#608=CARTESIAN_POINT('',(0.,21.1,9.95000000000001));
#609=CARTESIAN_POINT('',(0.,-21.1,9.95000000000001));
#610=CARTESIAN_POINT('',(0.,-21.1,9.95000000000001));
#611=CARTESIAN_POINT('',(0.,9.36433861533201,1.77635683940025E-15));
#612=CARTESIAN_POINT('',(0.,9.36433861533201,5.24999999999998));
#613=CARTESIAN_POINT('',(0.,-9.36433861533203,2.81600727351305E-15));
#614=CARTESIAN_POINT('',(0.,-9.36433861533203,5.24999999999998));
#615=CARTESIAN_POINT('',(0.,-21.1,-9.95000000000001));
#616=CARTESIAN_POINT('',(0.,-21.1,-9.95000000000001));
#617=CARTESIAN_POINT('',(0.,21.1,9.95000000000001));
#618=CARTESIAN_POINT('',(0.,21.1,-9.95000000000001));
#619=CARTESIAN_POINT('',(0.,21.1,-9.95000000000001));
#620=CARTESIAN_POINT('',(0.,0.,0.));
#621=CARTESIAN_POINT('',(1.47007108636061,-21.0486639864567,-9.89866398645673));
#622=CARTESIAN_POINT('',(0.,-21.1,-9.95000000000001));
#623=CARTESIAN_POINT('',(0.69323257389991,21.0757917850827,-9.92579178508268));
#624=CARTESIAN_POINT('',(0.,21.1,9.95000000000001));
#625=CARTESIAN_POINT('',(0.,21.1,-9.95000000000001));
#626=CARTESIAN_POINT('',(15.7,-9.36433861533201,2.81600727351306E-15));
#627=CARTESIAN_POINT('',(15.7,-14.614338615332,3.45894684306542E-15));
#628=CARTESIAN_POINT('',(-2.30000000000002,-9.36433861533203,2.81600727351305E-15));
#629=CARTESIAN_POINT('',(15.7,-9.36433861533201,2.81600727351306E-15));
#630=CARTESIAN_POINT('',(15.7,9.36433861533203,1.77635683940026E-15));
#631=CARTESIAN_POINT('',(15.7,4.11433861533205,2.41929640895262E-15));
#632=CARTESIAN_POINT('',(-2.30000000000003,9.36433861533201,1.77635683940025E-15));
#633=CARTESIAN_POINT('',(15.7,9.36433861533203,1.77635683940026E-15));
#634=CARTESIAN_POINT('',(16.5,-9.36433861533201,6.40775627003266E-14));
#635=CARTESIAN_POINT('',(16.5,-9.36433861533201,-4.07400294550698));
#636=CARTESIAN_POINT('',(16.7,-9.364338615332,2.54157805912314E-14));
#637=CARTESIAN_POINT('',(16.7,-14.614338615332,2.54157805912314E-14));
#638=CARTESIAN_POINT('',(44.0125000000001,-9.36433861533201,6.40775627003266E-14));
#639=CARTESIAN_POINT('',(16.5,-9.364338615332,2.5132673719952E-14));
#640=CARTESIAN_POINT('',(16.5,-9.364338615332,-5.24999999999996));
#641=CARTESIAN_POINT('',(6.00498989100688E-16,-9.36433861533202,1.77635683940025E-15));
#642=CARTESIAN_POINT('',(16.5,0.,0.));
#643=CARTESIAN_POINT('',(16.5,9.36433861533203,1.77635683940028E-15));
#644=CARTESIAN_POINT('',(16.5,9.36433861533203,-4.07400294550719));
#645=CARTESIAN_POINT('',(16.7,9.36433861533203,1.77635683940026E-15));
#646=CARTESIAN_POINT('',(16.7,4.11433861533206,2.35922392732846E-15));
#647=CARTESIAN_POINT('',(44.0125000000001,9.36433861533203,1.77635683940028E-15));
#648=CARTESIAN_POINT('',(16.5,9.36433861533203,1.77635683940026E-15));
#649=CARTESIAN_POINT('',(16.5,9.36433861533203,-5.24999999999998));
#650=CARTESIAN_POINT('',(-2.13393104242953E-14,9.36433861533202,1.77635683940025E-15));
#651=CARTESIAN_POINT('',(16.5,0.,0.));
#652=MECHANICAL_DESIGN_GEOMETRIC_PRESENTATION_REPRESENTATION('',(#24),#653);
#653=(
GEOMETRIC_REPRESENTATION_CONTEXT(3)
GLOBAL_UNCERTAINTY_ASSIGNED_CONTEXT((#654))
GLOBAL_UNIT_ASSIGNED_CONTEXT((#660,#656,#655))
REPRESENTATION_CONTEXT('28800_6_KDS-DES-2X10_5','TOP_LEVEL_ASSEMBLY_PART')
);
#654=UNCERTAINTY_MEASURE_WITH_UNIT(LENGTH_MEASURE(2.E-5),#660,
'DISTANCE_ACCURACY_VALUE','Maximum Tolerance applied to model');
#655=(
NAMED_UNIT(*)
SI_UNIT($,.STERADIAN.)
SOLID_ANGLE_UNIT()
);
#656=(
CONVERSION_BASED_UNIT('DEGREE',#658)
NAMED_UNIT(#657)
PLANE_ANGLE_UNIT()
);
#657=DIMENSIONAL_EXPONENTS(0.,0.,0.,0.,0.,0.,0.);
#658=PLANE_ANGLE_MEASURE_WITH_UNIT(PLANE_ANGLE_MEASURE(0.0174532925),#659);
#659=(
NAMED_UNIT(*)
PLANE_ANGLE_UNIT()
SI_UNIT($,.RADIAN.)
);
#660=(
LENGTH_UNIT()
NAMED_UNIT(*)
SI_UNIT(.MILLI.,.METRE.)
);
ENDSEC;
END-ISO-10303-21;
