ISO-10303-21;
HEADER;
/* Generated by software containing ST-Developer
 * from STEP Tools, Inc. (www.steptools.com) 
 */
/* OPTION: using custom schema-name function */

FILE_DESCRIPTION(
/* description */ (''),
/* implementation_level */ '2;1');

FILE_NAME(
/* name */ 'qs2_35.stp',
/* time_stamp */ '2018-06-07T10:19:07+02:00',
/* author */ (''),
/* organization */ (''),
/* preprocessor_version */ 'ST-DEVELOPER v16',
/* originating_system */ 'SIEMENS PLM Software NX 10.0',
/* authorisation */ '');

FILE_SCHEMA (('AP203_CONFIGURATION_CONTROLLED_3D_DESIGN_OF_MECHANICAL_PARTS_AND_ASSEMBLIES_MIM_LF { 1 0 10303 403 2 1 2}'));
ENDSEC;

DATA;
#10=PROPERTY_DEFINITION_REPRESENTATION(#14,#12);
#11=PROPERTY_DEFINITION_REPRESENTATION(#15,#13);
#12=REPRESENTATION('',(#16),#455);
#13=REPRESENTATION('',(#17),#455);
#14=PROPERTY_DEFINITION('pmi validation property','',#89);
#15=PROPERTY_DEFINITION('pmi validation property','',#89);
#16=VALUE_REPRESENTATION_ITEM('number of annotations',COUNT_MEASURE(0.));
#17=VALUE_REPRESENTATION_ITEM('number of views',COUNT_MEASURE(0.));
#18=SHAPE_REPRESENTATION_RELATIONSHIP('None',
'relationship between scho15CCDB67y11s-None and scho15CCDB67y11s-None',
#100,#19);
#19=ADVANCED_BREP_SHAPE_REPRESENTATION('scho15CCDB67y11s-None',(#101),#455);
#20=CC_DESIGN_APPROVAL(#32,(#90));
#21=CC_DESIGN_APPROVAL(#33,(#92));
#22=CC_DESIGN_APPROVAL(#34,(#39));
#23=APPROVAL_PERSON_ORGANIZATION(#77,#32,#26);
#24=APPROVAL_PERSON_ORGANIZATION(#78,#33,#27);
#25=APPROVAL_PERSON_ORGANIZATION(#79,#34,#28);
#26=APPROVAL_ROLE('approver');
#27=APPROVAL_ROLE('approver');
#28=APPROVAL_ROLE('approver');
#29=APPROVAL_DATE_TIME(#47,#32);
#30=APPROVAL_DATE_TIME(#48,#33);
#31=APPROVAL_DATE_TIME(#49,#34);
#32=APPROVAL(#35,' ');
#33=APPROVAL(#36,' ');
#34=APPROVAL(#37,' ');
#35=APPROVAL_STATUS('not_yet_approved');
#36=APPROVAL_STATUS('not_yet_approved');
#37=APPROVAL_STATUS('not_yet_approved');
#38=CC_DESIGN_SECURITY_CLASSIFICATION(#39,(#92));
#39=SECURITY_CLASSIFICATION(' ',' ',#40);
#40=SECURITY_CLASSIFICATION_LEVEL('confidential');
#41=CC_DESIGN_DATE_AND_TIME_ASSIGNMENT(#45,#43,(#90));
#42=CC_DESIGN_DATE_AND_TIME_ASSIGNMENT(#46,#44,(#39));
#43=DATE_TIME_ROLE('creation_date');
#44=DATE_TIME_ROLE('classification_date');
#45=DATE_AND_TIME(#60,#50);
#46=DATE_AND_TIME(#61,#51);
#47=DATE_AND_TIME(#62,#52);
#48=DATE_AND_TIME(#63,#53);
#49=DATE_AND_TIME(#64,#54);
#50=LOCAL_TIME(0,0,0.,#55);
#51=LOCAL_TIME(0,0,0.,#56);
#52=LOCAL_TIME(0,0,0.,#57);
#53=LOCAL_TIME(0,0,0.,#58);
#54=LOCAL_TIME(0,0,0.,#59);
#55=COORDINATED_UNIVERSAL_TIME_OFFSET(0,0,.BEHIND.);
#56=COORDINATED_UNIVERSAL_TIME_OFFSET(0,0,.BEHIND.);
#57=COORDINATED_UNIVERSAL_TIME_OFFSET(0,0,.BEHIND.);
#58=COORDINATED_UNIVERSAL_TIME_OFFSET(0,0,.BEHIND.);
#59=COORDINATED_UNIVERSAL_TIME_OFFSET(0,0,.BEHIND.);
#60=CALENDAR_DATE(0,1,1);
#61=CALENDAR_DATE(0,1,1);
#62=CALENDAR_DATE(0,1,1);
#63=CALENDAR_DATE(0,1,1);
#64=CALENDAR_DATE(0,1,1);
#65=CC_DESIGN_PERSON_AND_ORGANIZATION_ASSIGNMENT(#73,#69,(#90,#92));
#66=CC_DESIGN_PERSON_AND_ORGANIZATION_ASSIGNMENT(#74,#70,(#94));
#67=CC_DESIGN_PERSON_AND_ORGANIZATION_ASSIGNMENT(#75,#71,(#92));
#68=CC_DESIGN_PERSON_AND_ORGANIZATION_ASSIGNMENT(#76,#72,(#39));
#69=PERSON_AND_ORGANIZATION_ROLE('creator');
#70=PERSON_AND_ORGANIZATION_ROLE('design_owner');
#71=PERSON_AND_ORGANIZATION_ROLE('design_supplier');
#72=PERSON_AND_ORGANIZATION_ROLE('classification_officer');
#73=PERSON_AND_ORGANIZATION(#87,#80);
#74=PERSON_AND_ORGANIZATION(#87,#81);
#75=PERSON_AND_ORGANIZATION(#87,#82);
#76=PERSON_AND_ORGANIZATION(#87,#83);
#77=PERSON_AND_ORGANIZATION(#87,#84);
#78=PERSON_AND_ORGANIZATION(#87,#85);
#79=PERSON_AND_ORGANIZATION(#87,#86);
#80=ORGANIZATION(' ',' ',' ');
#81=ORGANIZATION(' ',' ',' ');
#82=ORGANIZATION(' ',' ',' ');
#83=ORGANIZATION(' ',' ',' ');
#84=ORGANIZATION(' ',' ',' ');
#85=ORGANIZATION(' ',' ',' ');
#86=ORGANIZATION(' ',' ',' ');
#87=PERSON(' ',' ',' ',(' '),$,$);
#88=SHAPE_DEFINITION_REPRESENTATION(#89,#100);
#89=PRODUCT_DEFINITION_SHAPE('','',#90);
#90=PRODUCT_DEFINITION(' ','',#92,#91);
#91=DESIGN_CONTEXT('',#99,'design');
#92=PRODUCT_DEFINITION_FORMATION_WITH_SPECIFIED_SOURCE(' ',' ',#94,
 .NOT_KNOWN.);
#93=PRODUCT_RELATED_PRODUCT_CATEGORY('detail','',(#94));
#94=PRODUCT('scho15CCDB67y11s','scho15CCDB67y11s',' ',(#97));
#95=PRODUCT_CATEGORY('part',' ');
#96=PRODUCT_CATEGORY(' ','');
#97=MECHANICAL_CONTEXT(' ',#99,'mechanical');
#98=APPLICATION_PROTOCOL_DEFINITION('international standard',
'config_control_design',2010,#99);
#99=APPLICATION_CONTEXT(
'configuration controlled 3D designs of mechanical parts and assemblie
s');
#100=SHAPE_REPRESENTATION('scho15CCDB67y11s-None',(#319),#455);
#101=MANIFOLD_SOLID_BREP('',#102);
#102=CLOSED_SHELL('',(#119,#120,#121,#122,#123,#124,#125,#126,#127,#128,
#129,#130));
#103=CYLINDRICAL_SURFACE('',#330,3.3);
#104=CYLINDRICAL_SURFACE('',#331,3.3);
#105=FACE_BOUND('',#150,.T.);
#106=FACE_BOUND('',#151,.T.);
#107=FACE_BOUND('',#152,.T.);
#108=FACE_BOUND('',#154,.T.);
#109=FACE_BOUND('',#155,.T.);
#110=FACE_BOUND('',#156,.T.);
#111=FACE_BOUND('',#159,.T.);
#112=FACE_BOUND('',#160,.T.);
#113=FACE_BOUND('',#161,.T.);
#114=FACE_BOUND('',#162,.T.);
#115=CIRCLE('',#321,3.3);
#116=CIRCLE('',#322,3.3);
#117=CIRCLE('',#325,3.3);
#118=CIRCLE('',#326,3.3);
#119=ADVANCED_FACE('',(#141),#131,.T.);
#120=ADVANCED_FACE('',(#105,#106,#107),#132,.T.);
#121=ADVANCED_FACE('',(#142),#133,.T.);
#122=ADVANCED_FACE('',(#108,#109,#110),#134,.T.);
#123=ADVANCED_FACE('',(#143),#135,.T.);
#124=ADVANCED_FACE('',(#144),#136,.T.);
#125=ADVANCED_FACE('',(#111,#112),#103,.F.);
#126=ADVANCED_FACE('',(#113,#114),#104,.F.);
#127=ADVANCED_FACE('',(#145),#137,.F.);
#128=ADVANCED_FACE('',(#146),#138,.F.);
#129=ADVANCED_FACE('',(#147),#139,.F.);
#130=ADVANCED_FACE('',(#148),#140,.F.);
#131=PLANE('',#320);
#132=PLANE('',#323);
#133=PLANE('',#324);
#134=PLANE('',#327);
#135=PLANE('',#328);
#136=PLANE('',#329);
#137=PLANE('',#332);
#138=PLANE('',#333);
#139=PLANE('',#334);
#140=PLANE('',#335);
#141=FACE_OUTER_BOUND('',#149,.T.);
#142=FACE_OUTER_BOUND('',#153,.T.);
#143=FACE_OUTER_BOUND('',#157,.T.);
#144=FACE_OUTER_BOUND('',#158,.T.);
#145=FACE_OUTER_BOUND('',#163,.T.);
#146=FACE_OUTER_BOUND('',#164,.T.);
#147=FACE_OUTER_BOUND('',#165,.T.);
#148=FACE_OUTER_BOUND('',#166,.T.);
#149=EDGE_LOOP('',(#167,#168,#169,#170));
#150=EDGE_LOOP('',(#171));
#151=EDGE_LOOP('',(#172));
#152=EDGE_LOOP('',(#173,#174,#175,#176));
#153=EDGE_LOOP('',(#177,#178,#179,#180,#181,#182,#183,#184));
#154=EDGE_LOOP('',(#185));
#155=EDGE_LOOP('',(#186));
#156=EDGE_LOOP('',(#187,#188,#189,#190));
#157=EDGE_LOOP('',(#191,#192,#193,#194));
#158=EDGE_LOOP('',(#195,#196,#197,#198,#199,#200,#201,#202));
#159=EDGE_LOOP('',(#203));
#160=EDGE_LOOP('',(#204));
#161=EDGE_LOOP('',(#205));
#162=EDGE_LOOP('',(#206));
#163=EDGE_LOOP('',(#207,#208,#209,#210));
#164=EDGE_LOOP('',(#211,#212,#213,#214));
#165=EDGE_LOOP('',(#215,#216,#217,#218));
#166=EDGE_LOOP('',(#219,#220,#221,#222));
#167=ORIENTED_EDGE('',*,*,#243,.F.);
#168=ORIENTED_EDGE('',*,*,#244,.T.);
#169=ORIENTED_EDGE('',*,*,#245,.F.);
#170=ORIENTED_EDGE('',*,*,#246,.T.);
#171=ORIENTED_EDGE('',*,*,#247,.T.);
#172=ORIENTED_EDGE('',*,*,#248,.T.);
#173=ORIENTED_EDGE('',*,*,#249,.T.);
#174=ORIENTED_EDGE('',*,*,#250,.T.);
#175=ORIENTED_EDGE('',*,*,#251,.F.);
#176=ORIENTED_EDGE('',*,*,#252,.T.);
#177=ORIENTED_EDGE('',*,*,#251,.T.);
#178=ORIENTED_EDGE('',*,*,#253,.T.);
#179=ORIENTED_EDGE('',*,*,#243,.T.);
#180=ORIENTED_EDGE('',*,*,#254,.T.);
#181=ORIENTED_EDGE('',*,*,#255,.F.);
#182=ORIENTED_EDGE('',*,*,#256,.T.);
#183=ORIENTED_EDGE('',*,*,#257,.T.);
#184=ORIENTED_EDGE('',*,*,#258,.T.);
#185=ORIENTED_EDGE('',*,*,#259,.T.);
#186=ORIENTED_EDGE('',*,*,#260,.T.);
#187=ORIENTED_EDGE('',*,*,#255,.T.);
#188=ORIENTED_EDGE('',*,*,#261,.T.);
#189=ORIENTED_EDGE('',*,*,#262,.F.);
#190=ORIENTED_EDGE('',*,*,#263,.T.);
#191=ORIENTED_EDGE('',*,*,#264,.F.);
#192=ORIENTED_EDGE('',*,*,#265,.T.);
#193=ORIENTED_EDGE('',*,*,#257,.F.);
#194=ORIENTED_EDGE('',*,*,#266,.T.);
#195=ORIENTED_EDGE('',*,*,#245,.T.);
#196=ORIENTED_EDGE('',*,*,#267,.T.);
#197=ORIENTED_EDGE('',*,*,#249,.F.);
#198=ORIENTED_EDGE('',*,*,#268,.T.);
#199=ORIENTED_EDGE('',*,*,#264,.T.);
#200=ORIENTED_EDGE('',*,*,#269,.T.);
#201=ORIENTED_EDGE('',*,*,#262,.T.);
#202=ORIENTED_EDGE('',*,*,#270,.T.);
#203=ORIENTED_EDGE('',*,*,#260,.F.);
#204=ORIENTED_EDGE('',*,*,#248,.F.);
#205=ORIENTED_EDGE('',*,*,#259,.F.);
#206=ORIENTED_EDGE('',*,*,#247,.F.);
#207=ORIENTED_EDGE('',*,*,#267,.F.);
#208=ORIENTED_EDGE('',*,*,#244,.F.);
#209=ORIENTED_EDGE('',*,*,#253,.F.);
#210=ORIENTED_EDGE('',*,*,#250,.F.);
#211=ORIENTED_EDGE('',*,*,#254,.F.);
#212=ORIENTED_EDGE('',*,*,#246,.F.);
#213=ORIENTED_EDGE('',*,*,#270,.F.);
#214=ORIENTED_EDGE('',*,*,#261,.F.);
#215=ORIENTED_EDGE('',*,*,#258,.F.);
#216=ORIENTED_EDGE('',*,*,#265,.F.);
#217=ORIENTED_EDGE('',*,*,#268,.F.);
#218=ORIENTED_EDGE('',*,*,#252,.F.);
#219=ORIENTED_EDGE('',*,*,#269,.F.);
#220=ORIENTED_EDGE('',*,*,#266,.F.);
#221=ORIENTED_EDGE('',*,*,#256,.F.);
#222=ORIENTED_EDGE('',*,*,#263,.F.);
#223=VERTEX_POINT('',#396);
#224=VERTEX_POINT('',#397);
#225=VERTEX_POINT('',#399);
#226=VERTEX_POINT('',#401);
#227=VERTEX_POINT('',#405);
#228=VERTEX_POINT('',#407);
#229=VERTEX_POINT('',#409);
#230=VERTEX_POINT('',#410);
#231=VERTEX_POINT('',#412);
#232=VERTEX_POINT('',#414);
#233=VERTEX_POINT('',#419);
#234=VERTEX_POINT('',#421);
#235=VERTEX_POINT('',#423);
#236=VERTEX_POINT('',#425);
#237=VERTEX_POINT('',#429);
#238=VERTEX_POINT('',#431);
#239=VERTEX_POINT('',#433);
#240=VERTEX_POINT('',#435);
#241=VERTEX_POINT('',#439);
#242=VERTEX_POINT('',#440);
#243=EDGE_CURVE('',#223,#224,#271,.T.);
#244=EDGE_CURVE('',#223,#225,#272,.T.);
#245=EDGE_CURVE('',#226,#225,#273,.T.);
#246=EDGE_CURVE('',#226,#224,#274,.T.);
#247=EDGE_CURVE('',#227,#227,#115,.T.);
#248=EDGE_CURVE('',#228,#228,#116,.T.);
#249=EDGE_CURVE('',#229,#230,#275,.T.);
#250=EDGE_CURVE('',#230,#231,#276,.T.);
#251=EDGE_CURVE('',#232,#231,#277,.T.);
#252=EDGE_CURVE('',#232,#229,#278,.T.);
#253=EDGE_CURVE('',#231,#223,#279,.T.);
#254=EDGE_CURVE('',#224,#233,#280,.T.);
#255=EDGE_CURVE('',#234,#233,#281,.T.);
#256=EDGE_CURVE('',#234,#235,#282,.T.);
#257=EDGE_CURVE('',#235,#236,#283,.T.);
#258=EDGE_CURVE('',#236,#232,#284,.T.);
#259=EDGE_CURVE('',#237,#237,#117,.T.);
#260=EDGE_CURVE('',#238,#238,#118,.T.);
#261=EDGE_CURVE('',#233,#239,#285,.T.);
#262=EDGE_CURVE('',#240,#239,#286,.T.);
#263=EDGE_CURVE('',#240,#234,#287,.T.);
#264=EDGE_CURVE('',#241,#242,#288,.T.);
#265=EDGE_CURVE('',#241,#236,#289,.T.);
#266=EDGE_CURVE('',#235,#242,#290,.T.);
#267=EDGE_CURVE('',#225,#230,#291,.T.);
#268=EDGE_CURVE('',#229,#241,#292,.T.);
#269=EDGE_CURVE('',#242,#240,#293,.T.);
#270=EDGE_CURVE('',#239,#226,#294,.T.);
#271=LINE('',#395,#295);
#272=LINE('',#398,#296);
#273=LINE('',#400,#297);
#274=LINE('',#402,#298);
#275=LINE('',#408,#299);
#276=LINE('',#411,#300);
#277=LINE('',#413,#301);
#278=LINE('',#415,#302);
#279=LINE('',#417,#303);
#280=LINE('',#418,#304);
#281=LINE('',#420,#305);
#282=LINE('',#422,#306);
#283=LINE('',#424,#307);
#284=LINE('',#426,#308);
#285=LINE('',#432,#309);
#286=LINE('',#434,#310);
#287=LINE('',#436,#311);
#288=LINE('',#438,#312);
#289=LINE('',#441,#313);
#290=LINE('',#442,#314);
#291=LINE('',#444,#315);
#292=LINE('',#445,#316);
#293=LINE('',#446,#317);
#294=LINE('',#447,#318);
#295=VECTOR('',#338,1.);
#296=VECTOR('',#339,1.);
#297=VECTOR('',#340,1.);
#298=VECTOR('',#341,1.);
#299=VECTOR('',#348,1.);
#300=VECTOR('',#349,1.);
#301=VECTOR('',#350,1.);
#302=VECTOR('',#351,1.);
#303=VECTOR('',#354,1.);
#304=VECTOR('',#355,1.);
#305=VECTOR('',#356,1.);
#306=VECTOR('',#357,1.);
#307=VECTOR('',#358,1.);
#308=VECTOR('',#359,1.);
#309=VECTOR('',#366,1.);
#310=VECTOR('',#367,1.);
#311=VECTOR('',#368,1.);
#312=VECTOR('',#371,1.);
#313=VECTOR('',#372,1.);
#314=VECTOR('',#373,1.);
#315=VECTOR('',#376,1.);
#316=VECTOR('',#377,1.);
#317=VECTOR('',#378,1.);
#318=VECTOR('',#379,1.);
#319=AXIS2_PLACEMENT_3D('',#394,#336,#337);
#320=AXIS2_PLACEMENT_3D('',#403,#342,#343);
#321=AXIS2_PLACEMENT_3D('',#404,#344,#345);
#322=AXIS2_PLACEMENT_3D('',#406,#346,#347);
#323=AXIS2_PLACEMENT_3D('',#416,#352,#353);
#324=AXIS2_PLACEMENT_3D('',#427,#360,#361);
#325=AXIS2_PLACEMENT_3D('',#428,#362,#363);
#326=AXIS2_PLACEMENT_3D('',#430,#364,#365);
#327=AXIS2_PLACEMENT_3D('',#437,#369,#370);
#328=AXIS2_PLACEMENT_3D('',#443,#374,#375);
#329=AXIS2_PLACEMENT_3D('',#448,#380,#381);
#330=AXIS2_PLACEMENT_3D('',#449,#382,#383);
#331=AXIS2_PLACEMENT_3D('',#450,#384,#385);
#332=AXIS2_PLACEMENT_3D('',#451,#386,#387);
#333=AXIS2_PLACEMENT_3D('',#452,#388,#389);
#334=AXIS2_PLACEMENT_3D('',#453,#390,#391);
#335=AXIS2_PLACEMENT_3D('',#454,#392,#393);
#336=DIRECTION('',(0.,0.,1.));
#337=DIRECTION('',(1.,0.,0.));
#338=DIRECTION('',(0.,1.,0.));
#339=DIRECTION('',(1.,0.,0.));
#340=DIRECTION('',(0.,-1.,0.));
#341=DIRECTION('',(-1.,0.,0.));
#342=DIRECTION('',(0.,0.,1.));
#343=DIRECTION('',(1.,0.,0.));
#344=DIRECTION('',(0.,1.,0.));
#345=DIRECTION('',(0.,0.,1.));
#346=DIRECTION('',(0.,1.,0.));
#347=DIRECTION('',(0.,0.,1.));
#348=DIRECTION('',(0.,0.,1.));
#349=DIRECTION('',(-1.,0.,0.));
#350=DIRECTION('',(0.,0.,1.));
#351=DIRECTION('',(1.,0.,0.));
#352=DIRECTION('',(0.,-1.,0.));
#353=DIRECTION('',(0.,0.,-1.));
#354=DIRECTION('',(0.,0.707106781186547,0.707106781186548));
#355=DIRECTION('',(0.,0.707106781186547,-0.707106781186548));
#356=DIRECTION('',(0.,0.,1.));
#357=DIRECTION('',(0.,-0.707106781186547,-0.707106781186548));
#358=DIRECTION('',(0.,-1.,0.));
#359=DIRECTION('',(0.,-0.707106781186547,0.707106781186548));
#360=DIRECTION('',(-1.,0.,0.));
#361=DIRECTION('',(0.,0.,1.));
#362=DIRECTION('',(0.,-1.,0.));
#363=DIRECTION('',(0.,0.,-1.));
#364=DIRECTION('',(0.,-1.,0.));
#365=DIRECTION('',(0.,0.,-1.));
#366=DIRECTION('',(1.,0.,0.));
#367=DIRECTION('',(0.,0.,1.));
#368=DIRECTION('',(-1.,0.,0.));
#369=DIRECTION('',(0.,1.,0.));
#370=DIRECTION('',(0.,0.,1.));
#371=DIRECTION('',(0.,1.,0.));
#372=DIRECTION('',(-1.,0.,0.));
#373=DIRECTION('',(1.,0.,0.));
#374=DIRECTION('',(0.,0.,-1.));
#375=DIRECTION('',(-1.,0.,0.));
#376=DIRECTION('',(0.,-0.707106781186547,-0.707106781186548));
#377=DIRECTION('',(0.,0.707106781186547,-0.707106781186548));
#378=DIRECTION('',(0.,0.707106781186547,0.707106781186548));
#379=DIRECTION('',(0.,-0.707106781186547,0.707106781186548));
#380=DIRECTION('',(1.,0.,0.));
#381=DIRECTION('',(0.,0.,-1.));
#382=DIRECTION('',(0.,1.,0.));
#383=DIRECTION('',(0.,0.,1.));
#384=DIRECTION('',(0.,1.,0.));
#385=DIRECTION('',(0.,0.,1.));
#386=DIRECTION('',(0.,0.707106781186548,-0.707106781186547));
#387=DIRECTION('',(0.,0.707106781186547,0.707106781186548));
#388=DIRECTION('',(0.,-0.707106781186548,-0.707106781186547));
#389=DIRECTION('',(0.,0.707106781186547,-0.707106781186548));
#390=DIRECTION('',(0.,0.707106781186548,0.707106781186547));
#391=DIRECTION('',(0.,-0.707106781186547,0.707106781186548));
#392=DIRECTION('',(0.,-0.707106781186548,0.707106781186547));
#393=DIRECTION('',(0.,-0.707106781186547,-0.707106781186548));
#394=CARTESIAN_POINT('',(0.,0.,0.));
#395=CARTESIAN_POINT('',(-16.,2.,7.5));
#396=CARTESIAN_POINT('',(-16.,0.5,7.5));
#397=CARTESIAN_POINT('',(-16.,3.5,7.5));
#398=CARTESIAN_POINT('',(1.73472347597681E-15,0.5,7.5));
#399=CARTESIAN_POINT('',(16.,0.5,7.5));
#400=CARTESIAN_POINT('',(16.,2.,7.5));
#401=CARTESIAN_POINT('',(16.,3.5,7.5));
#402=CARTESIAN_POINT('',(1.73472347597681E-15,3.5,7.5));
#403=CARTESIAN_POINT('',(1.73472347597681E-15,2.,7.5));
#404=CARTESIAN_POINT('',(9.,0.,0.));
#405=CARTESIAN_POINT('',(9.,0.,3.3));
#406=CARTESIAN_POINT('',(-9.,0.,0.));
#407=CARTESIAN_POINT('',(-9.,0.,3.3));
#408=CARTESIAN_POINT('',(16.,0.,-7.5));
#409=CARTESIAN_POINT('',(16.,-1.0842021724855E-16,-7.));
#410=CARTESIAN_POINT('',(16.,-4.33680868994202E-16,7.));
#411=CARTESIAN_POINT('',(1.73472347597681E-15,0.,7.));
#412=CARTESIAN_POINT('',(-16.,-4.33680868994202E-16,7.));
#413=CARTESIAN_POINT('',(-16.,0.,-7.5));
#414=CARTESIAN_POINT('',(-16.,-1.0842021724855E-16,-7.));
#415=CARTESIAN_POINT('',(1.73472347597681E-15,0.,-7.));
#416=CARTESIAN_POINT('',(1.73472347597681E-15,0.,-7.5));
#417=CARTESIAN_POINT('',(-16.,-6.25,0.749999999999994));
#418=CARTESIAN_POINT('',(-16.,10.25,0.749999999999994));
#419=CARTESIAN_POINT('',(-16.,4.,7.));
#420=CARTESIAN_POINT('',(-16.,4.,-7.5));
#421=CARTESIAN_POINT('',(-16.,4.,-7.));
#422=CARTESIAN_POINT('',(-16.,2.75,-8.25));
#423=CARTESIAN_POINT('',(-16.,3.5,-7.5));
#424=CARTESIAN_POINT('',(-16.,2.,-7.5));
#425=CARTESIAN_POINT('',(-16.,0.499999999999999,-7.5));
#426=CARTESIAN_POINT('',(-16.,1.25,-8.25));
#427=CARTESIAN_POINT('',(-16.,2.,-7.5));
#428=CARTESIAN_POINT('',(9.,4.,0.));
#429=CARTESIAN_POINT('',(9.,4.,-3.3));
#430=CARTESIAN_POINT('',(-9.,4.,0.));
#431=CARTESIAN_POINT('',(-9.,4.,-3.3));
#432=CARTESIAN_POINT('',(1.73472347597681E-15,4.,7.));
#433=CARTESIAN_POINT('',(16.,4.,7.));
#434=CARTESIAN_POINT('',(16.,4.,-7.5));
#435=CARTESIAN_POINT('',(16.,4.,-7.));
#436=CARTESIAN_POINT('',(1.73472347597681E-15,4.,-7.));
#437=CARTESIAN_POINT('',(1.73472347597681E-15,4.,-7.5));
#438=CARTESIAN_POINT('',(16.,2.,-7.5));
#439=CARTESIAN_POINT('',(16.,0.5,-7.5));
#440=CARTESIAN_POINT('',(16.,3.5,-7.5));
#441=CARTESIAN_POINT('',(1.73472347597681E-15,0.5,-7.5));
#442=CARTESIAN_POINT('',(1.73472347597681E-15,3.5,-7.5));
#443=CARTESIAN_POINT('',(1.73472347597681E-15,2.,-7.5));
#444=CARTESIAN_POINT('',(16.,-6.25,0.749999999999994));
#445=CARTESIAN_POINT('',(16.,1.25,-8.25));
#446=CARTESIAN_POINT('',(16.,2.75,-8.25));
#447=CARTESIAN_POINT('',(16.,10.25,0.749999999999994));
#448=CARTESIAN_POINT('',(16.,2.,-7.5));
#449=CARTESIAN_POINT('',(-9.,0.,0.));
#450=CARTESIAN_POINT('',(9.,0.,0.));
#451=CARTESIAN_POINT('',(1.73472347597681E-15,0.,7.));
#452=CARTESIAN_POINT('',(1.73472347597681E-15,4.,7.));
#453=CARTESIAN_POINT('',(1.73472347597681E-15,0.,-7.));
#454=CARTESIAN_POINT('',(1.73472347597681E-15,4.,-7.));
#455=(
GEOMETRIC_REPRESENTATION_CONTEXT(3)
GLOBAL_UNCERTAINTY_ASSIGNED_CONTEXT((#456))
GLOBAL_UNIT_ASSIGNED_CONTEXT((#462,#458,#457))
REPRESENTATION_CONTEXT('qs2_35','TOP_LEVEL_ASSEMBLY_PART')
);
#456=UNCERTAINTY_MEASURE_WITH_UNIT(LENGTH_MEASURE(2.E-5),#462,
'DISTANCE_ACCURACY_VALUE','Maximum Tolerance applied to model');
#457=(
NAMED_UNIT(*)
SI_UNIT($,.STERADIAN.)
SOLID_ANGLE_UNIT()
);
#458=(
CONVERSION_BASED_UNIT('DEGREE',#460)
NAMED_UNIT(#459)
PLANE_ANGLE_UNIT()
);
#459=DIMENSIONAL_EXPONENTS(0.,0.,0.,0.,0.,0.,0.);
#460=PLANE_ANGLE_MEASURE_WITH_UNIT(PLANE_ANGLE_MEASURE(0.0174532925),#461);
#461=(
NAMED_UNIT(*)
PLANE_ANGLE_UNIT()
SI_UNIT($,.RADIAN.)
);
#462=(
LENGTH_UNIT()
NAMED_UNIT(*)
SI_UNIT(.MILLI.,.METRE.)
);
ENDSEC;
END-ISO-10303-21;
