ISO-10303-21;
HEADER;
/* Generated by software containing ST-Developer
 * from STEP Tools, Inc. (www.steptools.com) 
 */
/* OPTION: using custom schema-name function */

FILE_DESCRIPTION(
/* description */ (''),
/* implementation_level */ '2;1');

FILE_NAME(
/* name */ '28593_6_KDS-DEG_31-32.stp',
/* time_stamp */ '2020-04-06T08:26:46+02:00',
/* author */ (''),
/* organization */ (''),
/* preprocessor_version */ 'ST-DEVELOPER v16.7',
/* originating_system */ 'SIEMENS PLM Software NX 12.0',
/* authorisation */ '');

FILE_SCHEMA (('AUTOMOTIVE_DESIGN { 1 0 10303 214 3 1 1 1 }'));
ENDSEC;

DATA;
#10=SHAPE_REPRESENTATION_RELATIONSHIP('None',
'relationship between 28593_6_KDS-DEG_31-32-None and 28593_6_KDS-DEG_31-32-None',#22,#11);
#11=ADVANCED_BREP_SHAPE_REPRESENTATION(
'28593_6_KDS-DEG_31-32-None',(#32),#363);
#12=SHAPE_DEFINITION_REPRESENTATION(#13,#22);
#13=PRODUCT_DEFINITION_SHAPE('','',#14);
#14=PRODUCT_DEFINITION(' ','',#16,#15);
#15=PRODUCT_DEFINITION_CONTEXT('part definition',#21,'design');
#16=PRODUCT_DEFINITION_FORMATION_WITH_SPECIFIED_SOURCE(' ',' ',#18,
 .NOT_KNOWN.);
#17=PRODUCT_RELATED_PRODUCT_CATEGORY('part','',(#18));
#18=PRODUCT('28593_6_KDS-DEG_31-32',
'28593_6_KDS-DEG_31-32',' ',(#19));
#19=PRODUCT_CONTEXT(' ',#21,'mechanical');
#20=APPLICATION_PROTOCOL_DEFINITION('international standard',
'automotive_design',2010,#21);
#21=APPLICATION_CONTEXT(
'core data for automotive mechanical design processes');
#22=SHAPE_REPRESENTATION('28593_6_KDS-DEG_31-32-None',(#236),#363);
#23=PRESENTATION_LAYER_ASSIGNMENT('1','Layer 1',(#32));
#24=STYLED_ITEM('',(#25),#32);
#25=PRESENTATION_STYLE_ASSIGNMENT((#26));
#26=SURFACE_STYLE_USAGE(.BOTH.,#27);
#27=SURFACE_SIDE_STYLE('',(#28));
#28=SURFACE_STYLE_FILL_AREA(#29);
#29=FILL_AREA_STYLE('',(#30));
#30=FILL_AREA_STYLE_COLOUR('',#31);
#31=COLOUR_RGB('Medium Steel',0.596063172350652,0.666666666666667,0.686259250782025);
#32=MANIFOLD_SOLID_BREP('',#33);
#33=CLOSED_SHELL('',(#45,#46,#47,#48,#49,#50,#51,#52,#53,#54,#55,#56));
#34=CYLINDRICAL_SURFACE('',#250,15.5);
#35=CIRCLE('',#242,15.5);
#36=CIRCLE('',#248,15.5);
#37=FACE_BOUND('',#80,.T.);
#38=FACE_BOUND('',#81,.T.);
#39=FACE_BOUND('',#82,.T.);
#40=FACE_BOUND('',#83,.T.);
#41=FACE_BOUND('',#88,.T.);
#42=FACE_BOUND('',#89,.T.);
#43=FACE_BOUND('',#90,.T.);
#44=FACE_BOUND('',#91,.T.);
#45=ADVANCED_FACE('',(#68),#57,.T.);
#46=ADVANCED_FACE('',(#69),#58,.T.);
#47=ADVANCED_FACE('',(#70),#59,.T.);
#48=ADVANCED_FACE('',(#71),#60,.T.);
#49=ADVANCED_FACE('',(#37,#38),#61,.T.);
#50=ADVANCED_FACE('',(#39,#40),#62,.F.);
#51=ADVANCED_FACE('',(#72),#63,.F.);
#52=ADVANCED_FACE('',(#73),#64,.F.);
#53=ADVANCED_FACE('',(#74),#65,.F.);
#54=ADVANCED_FACE('',(#75),#66,.F.);
#55=ADVANCED_FACE('',(#41,#42),#67,.T.);
#56=ADVANCED_FACE('',(#43,#44),#34,.F.);
#57=PLANE('',#237);
#58=PLANE('',#238);
#59=PLANE('',#239);
#60=PLANE('',#240);
#61=PLANE('',#241);
#62=PLANE('',#243);
#63=PLANE('',#244);
#64=PLANE('',#245);
#65=PLANE('',#246);
#66=PLANE('',#247);
#67=PLANE('',#249);
#68=FACE_OUTER_BOUND('',#76,.T.);
#69=FACE_OUTER_BOUND('',#77,.T.);
#70=FACE_OUTER_BOUND('',#78,.T.);
#71=FACE_OUTER_BOUND('',#79,.T.);
#72=FACE_OUTER_BOUND('',#84,.T.);
#73=FACE_OUTER_BOUND('',#85,.T.);
#74=FACE_OUTER_BOUND('',#86,.T.);
#75=FACE_OUTER_BOUND('',#87,.T.);
#76=EDGE_LOOP('',(#92,#93,#94,#95));
#77=EDGE_LOOP('',(#96,#97,#98,#99));
#78=EDGE_LOOP('',(#100,#101,#102,#103));
#79=EDGE_LOOP('',(#104,#105,#106,#107));
#80=EDGE_LOOP('',(#108,#109,#110,#111));
#81=EDGE_LOOP('',(#112,#113,#114,#115));
#82=EDGE_LOOP('',(#116));
#83=EDGE_LOOP('',(#117,#118,#119,#120));
#84=EDGE_LOOP('',(#121,#122,#123,#124));
#85=EDGE_LOOP('',(#125,#126,#127,#128));
#86=EDGE_LOOP('',(#129,#130,#131,#132));
#87=EDGE_LOOP('',(#133,#134,#135,#136));
#88=EDGE_LOOP('',(#137));
#89=EDGE_LOOP('',(#138,#139,#140,#141));
#90=EDGE_LOOP('',(#142));
#91=EDGE_LOOP('',(#143));
#92=ORIENTED_EDGE('',*,*,#162,.T.);
#93=ORIENTED_EDGE('',*,*,#163,.F.);
#94=ORIENTED_EDGE('',*,*,#164,.F.);
#95=ORIENTED_EDGE('',*,*,#165,.T.);
#96=ORIENTED_EDGE('',*,*,#166,.T.);
#97=ORIENTED_EDGE('',*,*,#167,.F.);
#98=ORIENTED_EDGE('',*,*,#168,.F.);
#99=ORIENTED_EDGE('',*,*,#163,.T.);
#100=ORIENTED_EDGE('',*,*,#169,.T.);
#101=ORIENTED_EDGE('',*,*,#170,.F.);
#102=ORIENTED_EDGE('',*,*,#171,.F.);
#103=ORIENTED_EDGE('',*,*,#167,.T.);
#104=ORIENTED_EDGE('',*,*,#172,.T.);
#105=ORIENTED_EDGE('',*,*,#165,.F.);
#106=ORIENTED_EDGE('',*,*,#173,.F.);
#107=ORIENTED_EDGE('',*,*,#170,.T.);
#108=ORIENTED_EDGE('',*,*,#174,.F.);
#109=ORIENTED_EDGE('',*,*,#175,.F.);
#110=ORIENTED_EDGE('',*,*,#176,.F.);
#111=ORIENTED_EDGE('',*,*,#177,.F.);
#112=ORIENTED_EDGE('',*,*,#164,.T.);
#113=ORIENTED_EDGE('',*,*,#168,.T.);
#114=ORIENTED_EDGE('',*,*,#171,.T.);
#115=ORIENTED_EDGE('',*,*,#173,.T.);
#116=ORIENTED_EDGE('',*,*,#178,.T.);
#117=ORIENTED_EDGE('',*,*,#162,.F.);
#118=ORIENTED_EDGE('',*,*,#172,.F.);
#119=ORIENTED_EDGE('',*,*,#169,.F.);
#120=ORIENTED_EDGE('',*,*,#166,.F.);
#121=ORIENTED_EDGE('',*,*,#174,.T.);
#122=ORIENTED_EDGE('',*,*,#179,.F.);
#123=ORIENTED_EDGE('',*,*,#180,.F.);
#124=ORIENTED_EDGE('',*,*,#181,.T.);
#125=ORIENTED_EDGE('',*,*,#177,.T.);
#126=ORIENTED_EDGE('',*,*,#182,.F.);
#127=ORIENTED_EDGE('',*,*,#183,.F.);
#128=ORIENTED_EDGE('',*,*,#179,.T.);
#129=ORIENTED_EDGE('',*,*,#176,.T.);
#130=ORIENTED_EDGE('',*,*,#184,.F.);
#131=ORIENTED_EDGE('',*,*,#185,.F.);
#132=ORIENTED_EDGE('',*,*,#182,.T.);
#133=ORIENTED_EDGE('',*,*,#175,.T.);
#134=ORIENTED_EDGE('',*,*,#181,.F.);
#135=ORIENTED_EDGE('',*,*,#186,.F.);
#136=ORIENTED_EDGE('',*,*,#184,.T.);
#137=ORIENTED_EDGE('',*,*,#187,.F.);
#138=ORIENTED_EDGE('',*,*,#180,.T.);
#139=ORIENTED_EDGE('',*,*,#183,.T.);
#140=ORIENTED_EDGE('',*,*,#185,.T.);
#141=ORIENTED_EDGE('',*,*,#186,.T.);
#142=ORIENTED_EDGE('',*,*,#187,.T.);
#143=ORIENTED_EDGE('',*,*,#178,.F.);
#144=VERTEX_POINT('',#307);
#145=VERTEX_POINT('',#308);
#146=VERTEX_POINT('',#310);
#147=VERTEX_POINT('',#312);
#148=VERTEX_POINT('',#316);
#149=VERTEX_POINT('',#318);
#150=VERTEX_POINT('',#322);
#151=VERTEX_POINT('',#324);
#152=VERTEX_POINT('',#331);
#153=VERTEX_POINT('',#332);
#154=VERTEX_POINT('',#334);
#155=VERTEX_POINT('',#336);
#156=VERTEX_POINT('',#340);
#157=VERTEX_POINT('',#343);
#158=VERTEX_POINT('',#345);
#159=VERTEX_POINT('',#349);
#160=VERTEX_POINT('',#353);
#161=VERTEX_POINT('',#359);
#162=EDGE_CURVE('',#144,#145,#188,.T.);
#163=EDGE_CURVE('',#146,#145,#189,.T.);
#164=EDGE_CURVE('',#147,#146,#190,.T.);
#165=EDGE_CURVE('',#147,#144,#191,.T.);
#166=EDGE_CURVE('',#145,#148,#192,.T.);
#167=EDGE_CURVE('',#149,#148,#193,.T.);
#168=EDGE_CURVE('',#146,#149,#194,.T.);
#169=EDGE_CURVE('',#148,#150,#195,.T.);
#170=EDGE_CURVE('',#151,#150,#196,.T.);
#171=EDGE_CURVE('',#149,#151,#197,.T.);
#172=EDGE_CURVE('',#150,#144,#198,.T.);
#173=EDGE_CURVE('',#151,#147,#199,.T.);
#174=EDGE_CURVE('',#152,#153,#200,.T.);
#175=EDGE_CURVE('',#154,#152,#201,.T.);
#176=EDGE_CURVE('',#155,#154,#202,.T.);
#177=EDGE_CURVE('',#153,#155,#203,.T.);
#178=EDGE_CURVE('',#156,#156,#35,.T.);
#179=EDGE_CURVE('',#157,#153,#204,.T.);
#180=EDGE_CURVE('',#158,#157,#205,.T.);
#181=EDGE_CURVE('',#158,#152,#206,.T.);
#182=EDGE_CURVE('',#159,#155,#207,.T.);
#183=EDGE_CURVE('',#157,#159,#208,.T.);
#184=EDGE_CURVE('',#160,#154,#209,.T.);
#185=EDGE_CURVE('',#159,#160,#210,.T.);
#186=EDGE_CURVE('',#160,#158,#211,.T.);
#187=EDGE_CURVE('',#161,#161,#36,.T.);
#188=LINE('',#306,#212);
#189=LINE('',#309,#213);
#190=LINE('',#311,#214);
#191=LINE('',#313,#215);
#192=LINE('',#315,#216);
#193=LINE('',#317,#217);
#194=LINE('',#319,#218);
#195=LINE('',#321,#219);
#196=LINE('',#323,#220);
#197=LINE('',#325,#221);
#198=LINE('',#327,#222);
#199=LINE('',#328,#223);
#200=LINE('',#330,#224);
#201=LINE('',#333,#225);
#202=LINE('',#335,#226);
#203=LINE('',#337,#227);
#204=LINE('',#342,#228);
#205=LINE('',#344,#229);
#206=LINE('',#346,#230);
#207=LINE('',#348,#231);
#208=LINE('',#350,#232);
#209=LINE('',#352,#233);
#210=LINE('',#354,#234);
#211=LINE('',#356,#235);
#212=VECTOR('',#253,1.);
#213=VECTOR('',#254,1.);
#214=VECTOR('',#255,1.);
#215=VECTOR('',#256,1.);
#216=VECTOR('',#259,1.);
#217=VECTOR('',#260,1.);
#218=VECTOR('',#261,1.);
#219=VECTOR('',#264,1.);
#220=VECTOR('',#265,1.);
#221=VECTOR('',#266,1.);
#222=VECTOR('',#269,1.);
#223=VECTOR('',#270,1.);
#224=VECTOR('',#273,1.);
#225=VECTOR('',#274,1.);
#226=VECTOR('',#275,1.);
#227=VECTOR('',#276,1.);
#228=VECTOR('',#283,1.);
#229=VECTOR('',#284,1.);
#230=VECTOR('',#285,1.);
#231=VECTOR('',#288,1.);
#232=VECTOR('',#289,1.);
#233=VECTOR('',#292,1.);
#234=VECTOR('',#293,1.);
#235=VECTOR('',#296,1.);
#236=AXIS2_PLACEMENT_3D('',#305,#251,#252);
#237=AXIS2_PLACEMENT_3D('',#314,#257,#258);
#238=AXIS2_PLACEMENT_3D('',#320,#262,#263);
#239=AXIS2_PLACEMENT_3D('',#326,#267,#268);
#240=AXIS2_PLACEMENT_3D('',#329,#271,#272);
#241=AXIS2_PLACEMENT_3D('',#338,#277,#278);
#242=AXIS2_PLACEMENT_3D('',#339,#279,#280);
#243=AXIS2_PLACEMENT_3D('',#341,#281,#282);
#244=AXIS2_PLACEMENT_3D('',#347,#286,#287);
#245=AXIS2_PLACEMENT_3D('',#351,#290,#291);
#246=AXIS2_PLACEMENT_3D('',#355,#294,#295);
#247=AXIS2_PLACEMENT_3D('',#357,#297,#298);
#248=AXIS2_PLACEMENT_3D('',#358,#299,#300);
#249=AXIS2_PLACEMENT_3D('',#360,#301,#302);
#250=AXIS2_PLACEMENT_3D('',#361,#303,#304);
#251=DIRECTION('',(0.,0.,1.));
#252=DIRECTION('',(1.,0.,0.));
#253=DIRECTION('',(1.65211759616839E-16,-1.,0.));
#254=DIRECTION('',(-0.0348782627423746,-0.0348782627423746,-0.998782765958718));
#255=DIRECTION('',(1.65211759616839E-16,-1.,0.));
#256=DIRECTION('',(-0.0348782627423746,0.0348782627423746,-0.998782765958718));
#257=DIRECTION('',(-0.999390827019096,-1.65111117076753E-16,0.0348994967025009));
#258=DIRECTION('',(0.0348994967025009,0.,0.999390827019096));
#259=DIRECTION('',(1.,-8.26058798084194E-17,0.));
#260=DIRECTION('',(0.0348782627423746,-0.0348782627423746,-0.998782765958718));
#261=DIRECTION('',(1.,-8.26058798084194E-17,0.));
#262=DIRECTION('',(-8.25555585383763E-17,-0.999390827019096,0.0348994967025009));
#263=DIRECTION('',(0.,-0.0348994967025009,-0.999390827019096));
#264=DIRECTION('',(1.65211759616839E-16,1.,0.));
#265=DIRECTION('',(0.0348782627423746,0.0348782627423746,-0.998782765958718));
#266=DIRECTION('',(1.65211759616839E-16,1.,0.));
#267=DIRECTION('',(0.999390827019096,-1.65111117076753E-16,0.0348994967025009));
#268=DIRECTION('',(0.0348994967025009,0.,-0.999390827019096));
#269=DIRECTION('',(-1.,0.,0.));
#270=DIRECTION('',(-1.,0.,0.));
#271=DIRECTION('',(0.,0.999390827019096,0.0348994967025009));
#272=DIRECTION('',(0.,-0.0348994967025009,0.999390827019096));
#273=DIRECTION('',(0.,-1.,0.));
#274=DIRECTION('',(-1.,0.,0.));
#275=DIRECTION('',(8.76122967665054E-17,1.,0.));
#276=DIRECTION('',(1.,0.,0.));
#277=DIRECTION('',(0.,0.,1.));
#278=DIRECTION('',(1.,0.,0.));
#279=DIRECTION('',(0.,0.,1.));
#280=DIRECTION('',(1.,0.,0.));
#281=DIRECTION('',(0.,0.,1.));
#282=DIRECTION('',(1.,0.,0.));
#283=DIRECTION('',(0.,0.,-1.));
#284=DIRECTION('',(0.,-1.,0.));
#285=DIRECTION('',(0.,0.,-1.));
#286=DIRECTION('',(1.,0.,0.));
#287=DIRECTION('',(0.,0.,-1.));
#288=DIRECTION('',(0.,0.,-1.));
#289=DIRECTION('',(1.,0.,0.));
#290=DIRECTION('',(0.,1.,0.));
#291=DIRECTION('',(0.,0.,1.));
#292=DIRECTION('',(0.,0.,-1.));
#293=DIRECTION('',(8.76122967665054E-17,1.,0.));
#294=DIRECTION('',(-1.,8.76122967665054E-17,0.));
#295=DIRECTION('',(-8.67361737988404E-17,-1.,0.));
#296=DIRECTION('',(-1.,0.,0.));
#297=DIRECTION('',(0.,-1.,0.));
#298=DIRECTION('',(0.,0.,-1.));
#299=DIRECTION('',(0.,0.,1.));
#300=DIRECTION('',(1.,0.,0.));
#301=DIRECTION('',(0.,0.,1.));
#302=DIRECTION('',(1.,0.,0.));
#303=DIRECTION('',(0.,0.,1.));
#304=DIRECTION('',(1.,0.,0.));
#305=CARTESIAN_POINT('',(0.,0.,0.));
#306=CARTESIAN_POINT('',(-21.,21.,0.));
#307=CARTESIAN_POINT('',(-21.,21.,0.));
#308=CARTESIAN_POINT('',(-21.,-21.,0.));
#309=CARTESIAN_POINT('',(-21.,-21.,-2.68528881543947E-32));
#310=CARTESIAN_POINT('',(-20.4238073033862,-20.4238073033862,16.5));
#311=CARTESIAN_POINT('',(-20.4238073033862,21.,16.5));
#312=CARTESIAN_POINT('',(-20.4238073033862,20.4238073033862,16.5));
#313=CARTESIAN_POINT('',(-21.,21.,0.));
#314=CARTESIAN_POINT('',(-21.,21.,0.));
#315=CARTESIAN_POINT('',(-21.,-21.,0.));
#316=CARTESIAN_POINT('',(21.,-21.,0.));
#317=CARTESIAN_POINT('',(21.,-21.,1.20860986960402E-16));
#318=CARTESIAN_POINT('',(20.4238073033862,-20.4238073033862,16.5));
#319=CARTESIAN_POINT('',(-21.,-20.4238073033862,16.5));
#320=CARTESIAN_POINT('',(-21.,-21.,0.));
#321=CARTESIAN_POINT('',(21.,-21.,0.));
#322=CARTESIAN_POINT('',(21.,21.,0.));
#323=CARTESIAN_POINT('',(21.,21.,2.68528881543947E-32));
#324=CARTESIAN_POINT('',(20.4238073033862,20.4238073033862,16.5));
#325=CARTESIAN_POINT('',(20.4238073033862,-21.,16.5));
#326=CARTESIAN_POINT('',(21.,-21.,0.));
#327=CARTESIAN_POINT('',(21.,21.,0.));
#328=CARTESIAN_POINT('',(21.,20.4238073033862,16.5));
#329=CARTESIAN_POINT('',(21.,21.,0.));
#330=CARTESIAN_POINT('',(-19.8,19.8,16.5));
#331=CARTESIAN_POINT('',(-19.8,19.8,16.5));
#332=CARTESIAN_POINT('',(-19.8,-19.8,16.5));
#333=CARTESIAN_POINT('',(19.8,19.8,16.5));
#334=CARTESIAN_POINT('',(19.8,19.8,16.5));
#335=CARTESIAN_POINT('',(19.8,-19.8,16.5));
#336=CARTESIAN_POINT('',(19.8,-19.8,16.5));
#337=CARTESIAN_POINT('',(-19.8,-19.8,16.5));
#338=CARTESIAN_POINT('',(0.,0.,16.5));
#339=CARTESIAN_POINT('',(0.,0.,0.));
#340=CARTESIAN_POINT('',(15.5,0.,0.));
#341=CARTESIAN_POINT('',(0.,0.,0.));
#342=CARTESIAN_POINT('',(-19.8,-19.8,17.7));
#343=CARTESIAN_POINT('',(-19.8,-19.8,17.7));
#344=CARTESIAN_POINT('',(-19.8,19.8,17.7));
#345=CARTESIAN_POINT('',(-19.8,19.8,17.7));
#346=CARTESIAN_POINT('',(-19.8,19.8,17.7));
#347=CARTESIAN_POINT('',(-19.8,19.8,17.7));
#348=CARTESIAN_POINT('',(19.8,-19.8,17.7));
#349=CARTESIAN_POINT('',(19.8,-19.8,17.7));
#350=CARTESIAN_POINT('',(-19.8,-19.8,17.7));
#351=CARTESIAN_POINT('',(-19.8,-19.8,17.7));
#352=CARTESIAN_POINT('',(19.8,19.8,17.7));
#353=CARTESIAN_POINT('',(19.8,19.8,17.7));
#354=CARTESIAN_POINT('',(19.8,-19.8,17.7));
#355=CARTESIAN_POINT('',(19.8,-19.8,17.7));
#356=CARTESIAN_POINT('',(19.8,19.8,17.7));
#357=CARTESIAN_POINT('',(19.8,19.8,17.7));
#358=CARTESIAN_POINT('',(0.,0.,17.7));
#359=CARTESIAN_POINT('',(15.5,0.,17.7));
#360=CARTESIAN_POINT('',(0.,0.,17.7));
#361=CARTESIAN_POINT('',(0.,0.,0.));
#362=MECHANICAL_DESIGN_GEOMETRIC_PRESENTATION_REPRESENTATION('',(#24),#363);
#363=(
GEOMETRIC_REPRESENTATION_CONTEXT(3)
GLOBAL_UNCERTAINTY_ASSIGNED_CONTEXT((#364))
GLOBAL_UNIT_ASSIGNED_CONTEXT((#370,#366,#365))
REPRESENTATION_CONTEXT('28552.4_28593','TOP_LEVEL_ASSEMBLY_PART')
);
#364=UNCERTAINTY_MEASURE_WITH_UNIT(LENGTH_MEASURE(2.E-5),#370,
'DISTANCE_ACCURACY_VALUE','Maximum Tolerance applied to model');
#365=(
NAMED_UNIT(*)
SI_UNIT($,.STERADIAN.)
SOLID_ANGLE_UNIT()
);
#366=(
CONVERSION_BASED_UNIT('DEGREE',#368)
NAMED_UNIT(#367)
PLANE_ANGLE_UNIT()
);
#367=DIMENSIONAL_EXPONENTS(0.,0.,0.,0.,0.,0.,0.);
#368=PLANE_ANGLE_MEASURE_WITH_UNIT(PLANE_ANGLE_MEASURE(0.0174532925),#369);
#369=(
NAMED_UNIT(*)
PLANE_ANGLE_UNIT()
SI_UNIT($,.RADIAN.)
);
#370=(
LENGTH_UNIT()
NAMED_UNIT(*)
SI_UNIT(.MILLI.,.METRE.)
);
ENDSEC;
END-ISO-10303-21;
