ISO-10303-21;
HEADER;
FILE_DESCRIPTION((''),'2;1');
FILE_NAME('PRK10_4A_AP','2019-10-08T',('Christian Carl'),(''),
'CREO PARAMETRIC BY PTC INC, 2016380','CREO PARAMETRIC BY PTC INC, 2016380','');
FILE_SCHEMA(('CONFIG_CONTROL_DESIGN'));
ENDSEC;
DATA;
#2=CARTESIAN_POINT('',(-5.372510064779E1,4.17E1,1.5E0));
#3=DIRECTION('',(0.E0,0.E0,1.E0));
#4=DIRECTION('',(0.E0,1.E0,0.E0));
#5=AXIS2_PLACEMENT_3D('',#2,#3,#4);
#7=DIRECTION('',(-1.E0,0.E0,0.E0));
#8=VECTOR('',#7,1.074502012956E2);
#9=CARTESIAN_POINT('',(5.372510064779E1,4.2E1,1.5E0));
#10=LINE('',#9,#8);
#11=CARTESIAN_POINT('',(5.372510064779E1,4.17E1,1.5E0));
#12=DIRECTION('',(0.E0,0.E0,1.E0));
#13=DIRECTION('',(9.961946980917E-1,8.715574274765E-2,0.E0));
#14=AXIS2_PLACEMENT_3D('',#11,#12,#13);
#16=DIRECTION('',(-8.715574274766E-2,9.961946980917E-1,0.E0));
#17=VECTOR('',#16,1.118571561059E1);
#18=CARTESIAN_POINT('',(5.499885840943E1,3.058299613719E1,1.5E0));
#19=LINE('',#18,#17);
#20=CARTESIAN_POINT('',(5.47E1,3.055684941437E1,1.5E0));
#21=DIRECTION('',(0.E0,0.E0,-1.E0));
#22=DIRECTION('',(9.961946980917E-1,8.715574274767E-2,0.E0));
#23=AXIS2_PLACEMENT_3D('',#20,#21,#22);
#25=DIRECTION('',(0.E0,1.E0,0.E0));
#26=VECTOR('',#25,2.975684941437E1);
#27=CARTESIAN_POINT('',(5.5E1,8.E-1,1.5E0));
#28=LINE('',#27,#26);
#29=CARTESIAN_POINT('',(5.47E1,8.E-1,1.5E0));
#30=DIRECTION('',(0.E0,0.E0,1.E0));
#31=DIRECTION('',(0.E0,-1.E0,0.E0));
#32=AXIS2_PLACEMENT_3D('',#29,#30,#31);
#34=DIRECTION('',(1.E0,0.E0,0.E0));
#35=VECTOR('',#34,1.094E2);
#36=CARTESIAN_POINT('',(-5.47E1,5.E-1,1.5E0));
#37=LINE('',#36,#35);
#38=CARTESIAN_POINT('',(-5.47E1,8.E-1,1.5E0));
#39=DIRECTION('',(0.E0,0.E0,1.E0));
#40=DIRECTION('',(-1.E0,0.E0,0.E0));
#41=AXIS2_PLACEMENT_3D('',#38,#39,#40);
#43=DIRECTION('',(0.E0,-1.E0,0.E0));
#44=VECTOR('',#43,2.975684941437E1);
#45=CARTESIAN_POINT('',(-5.5E1,3.055684941437E1,1.5E0));
#46=LINE('',#45,#44);
#47=CARTESIAN_POINT('',(-5.47E1,3.055684941437E1,1.5E0));
#48=DIRECTION('',(0.E0,0.E0,-1.E0));
#49=DIRECTION('',(-1.E0,0.E0,0.E0));
#50=AXIS2_PLACEMENT_3D('',#47,#48,#49);
#52=DIRECTION('',(-8.715574274766E-2,-9.961946980917E-1,0.E0));
#53=VECTOR('',#52,1.118571561059E1);
#54=CARTESIAN_POINT('',(-5.402395905722E1,4.172614672282E1,1.5E0));
#55=LINE('',#54,#53);
#56=CARTESIAN_POINT('',(0.E0,2.075E1,1.5E0));
#57=DIRECTION('',(0.E0,0.E0,1.E0));
#58=DIRECTION('',(0.E0,1.E0,0.E0));
#59=AXIS2_PLACEMENT_3D('',#56,#57,#58);
#61=CARTESIAN_POINT('',(0.E0,2.075E1,1.5E0));
#62=DIRECTION('',(0.E0,0.E0,1.E0));
#63=DIRECTION('',(0.E0,-1.E0,0.E0));
#64=AXIS2_PLACEMENT_3D('',#61,#62,#63);
#66=CARTESIAN_POINT('',(-5.372510064779E1,4.17E1,0.E0));
#67=DIRECTION('',(0.E0,0.E0,-1.E0));
#68=DIRECTION('',(-9.961946980917E-1,8.715574274765E-2,0.E0));
#69=AXIS2_PLACEMENT_3D('',#66,#67,#68);
#71=DIRECTION('',(-8.715574274766E-2,-9.961946980917E-1,0.E0));
#72=VECTOR('',#71,1.118571561059E1);
#73=CARTESIAN_POINT('',(-5.402395905722E1,4.172614672282E1,0.E0));
#74=LINE('',#73,#72);
#75=CARTESIAN_POINT('',(-5.47E1,3.055684941437E1,0.E0));
#76=DIRECTION('',(0.E0,0.E0,1.E0));
#77=DIRECTION('',(-9.961946980917E-1,8.715574274766E-2,0.E0));
#78=AXIS2_PLACEMENT_3D('',#75,#76,#77);
#80=DIRECTION('',(0.E0,-1.E0,0.E0));
#81=VECTOR('',#80,2.975684941437E1);
#82=CARTESIAN_POINT('',(-5.5E1,3.055684941437E1,0.E0));
#83=LINE('',#82,#81);
#84=CARTESIAN_POINT('',(-5.47E1,8.E-1,0.E0));
#85=DIRECTION('',(0.E0,0.E0,-1.E0));
#86=DIRECTION('',(0.E0,-1.E0,0.E0));
#87=AXIS2_PLACEMENT_3D('',#84,#85,#86);
#89=DIRECTION('',(1.E0,0.E0,0.E0));
#90=VECTOR('',#89,1.094E2);
#91=CARTESIAN_POINT('',(-5.47E1,5.E-1,0.E0));
#92=LINE('',#91,#90);
#93=CARTESIAN_POINT('',(5.47E1,8.E-1,0.E0));
#94=DIRECTION('',(0.E0,0.E0,-1.E0));
#95=DIRECTION('',(1.E0,0.E0,0.E0));
#96=AXIS2_PLACEMENT_3D('',#93,#94,#95);
#98=DIRECTION('',(0.E0,1.E0,0.E0));
#99=VECTOR('',#98,2.975684941437E1);
#100=CARTESIAN_POINT('',(5.5E1,8.E-1,0.E0));
#101=LINE('',#100,#99);
#102=CARTESIAN_POINT('',(5.47E1,3.055684941437E1,0.E0));
#103=DIRECTION('',(0.E0,0.E0,1.E0));
#104=DIRECTION('',(1.E0,0.E0,0.E0));
#105=AXIS2_PLACEMENT_3D('',#102,#103,#104);
#107=DIRECTION('',(-8.715574274766E-2,9.961946980917E-1,0.E0));
#108=VECTOR('',#107,1.118571561059E1);
#109=CARTESIAN_POINT('',(5.499885840943E1,3.058299613719E1,0.E0));
#110=LINE('',#109,#108);
#111=CARTESIAN_POINT('',(5.372510064779E1,4.17E1,0.E0));
#112=DIRECTION('',(0.E0,0.E0,-1.E0));
#113=DIRECTION('',(0.E0,1.E0,0.E0));
#114=AXIS2_PLACEMENT_3D('',#111,#112,#113);
#116=DIRECTION('',(-1.E0,0.E0,0.E0));
#117=VECTOR('',#116,1.074502012956E2);
#118=CARTESIAN_POINT('',(5.372510064779E1,4.2E1,0.E0));
#119=LINE('',#118,#117);
#120=DIRECTION('',(0.E0,0.E0,-1.E0));
#121=VECTOR('',#120,1.5E0);
#122=CARTESIAN_POINT('',(-5.402395905722E1,4.172614672282E1,1.5E0));
#123=LINE('',#122,#121);
#124=DIRECTION('',(0.E0,0.E0,-1.E0));
#125=VECTOR('',#124,1.5E0);
#126=CARTESIAN_POINT('',(-5.499885840943E1,3.058299613719E1,1.5E0));
#127=LINE('',#126,#125);
#128=DIRECTION('',(0.E0,0.E0,-1.E0));
#129=VECTOR('',#128,1.5E0);
#130=CARTESIAN_POINT('',(-5.5E1,3.055684941437E1,1.5E0));
#131=LINE('',#130,#129);
#132=DIRECTION('',(0.E0,0.E0,-1.E0));
#133=VECTOR('',#132,1.5E0);
#134=CARTESIAN_POINT('',(-5.5E1,8.E-1,1.5E0));
#135=LINE('',#134,#133);
#136=DIRECTION('',(0.E0,0.E0,-1.E0));
#137=VECTOR('',#136,1.5E0);
#138=CARTESIAN_POINT('',(-5.47E1,5.E-1,1.5E0));
#139=LINE('',#138,#137);
#140=DIRECTION('',(0.E0,0.E0,-1.E0));
#141=VECTOR('',#140,1.5E0);
#142=CARTESIAN_POINT('',(5.47E1,5.E-1,1.5E0));
#143=LINE('',#142,#141);
#144=DIRECTION('',(0.E0,0.E0,-1.E0));
#145=VECTOR('',#144,1.5E0);
#146=CARTESIAN_POINT('',(5.5E1,3.055684941437E1,1.5E0));
#147=LINE('',#146,#145);
#148=DIRECTION('',(0.E0,0.E0,-1.E0));
#149=VECTOR('',#148,1.5E0);
#150=CARTESIAN_POINT('',(5.5E1,8.E-1,1.5E0));
#151=LINE('',#150,#149);
#152=DIRECTION('',(0.E0,0.E0,-1.E0));
#153=VECTOR('',#152,1.5E0);
#154=CARTESIAN_POINT('',(5.402395905722E1,4.172614672282E1,1.5E0));
#155=LINE('',#154,#153);
#156=DIRECTION('',(0.E0,0.E0,-1.E0));
#157=VECTOR('',#156,1.5E0);
#158=CARTESIAN_POINT('',(5.499885840943E1,3.058299613719E1,1.5E0));
#159=LINE('',#158,#157);
#160=DIRECTION('',(0.E0,0.E0,-1.E0));
#161=VECTOR('',#160,1.5E0);
#162=CARTESIAN_POINT('',(-5.372510064779E1,4.2E1,1.5E0));
#163=LINE('',#162,#161);
#164=DIRECTION('',(0.E0,0.E0,-1.E0));
#165=VECTOR('',#164,1.5E0);
#166=CARTESIAN_POINT('',(5.372510064779E1,4.2E1,1.5E0));
#167=LINE('',#166,#165);
#168=CARTESIAN_POINT('',(0.E0,2.075E1,8.E-1));
#169=DIRECTION('',(0.E0,0.E0,1.E0));
#170=DIRECTION('',(0.E0,1.E0,0.E0));
#171=AXIS2_PLACEMENT_3D('',#168,#169,#170);
#173=DIRECTION('',(0.E0,-7.071067811865E-1,7.071067811865E-1));
#174=VECTOR('',#173,9.899494936612E-1);
#175=CARTESIAN_POINT('',(0.E0,1.925E1,8.E-1));
#176=LINE('',#175,#174);
#177=CARTESIAN_POINT('',(0.E0,2.075E1,8.E-1));
#178=DIRECTION('',(0.E0,0.E0,-1.E0));
#179=DIRECTION('',(0.E0,1.E0,0.E0));
#180=AXIS2_PLACEMENT_3D('',#177,#178,#179);
#182=DIRECTION('',(0.E0,7.071067811865E-1,7.071067811865E-1));
#183=VECTOR('',#182,9.899494936612E-1);
#184=CARTESIAN_POINT('',(0.E0,2.225E1,8.E-1));
#185=LINE('',#184,#183);
#186=CARTESIAN_POINT('',(5.372510064779E1,4.2E1,0.E0));
#187=CARTESIAN_POINT('',(5.402395905722E1,4.172614672282E1,0.E0));
#188=VERTEX_POINT('',#186);
#189=VERTEX_POINT('',#187);
#190=CARTESIAN_POINT('',(5.402395905722E1,4.172614672282E1,1.5E0));
#191=VERTEX_POINT('',#190);
#192=CARTESIAN_POINT('',(5.372510064779E1,4.2E1,1.5E0));
#193=VERTEX_POINT('',#192);
#194=CARTESIAN_POINT('',(5.499885840943E1,3.058299613719E1,1.5E0));
#195=CARTESIAN_POINT('',(5.499885840943E1,3.058299613719E1,0.E0));
#196=VERTEX_POINT('',#194);
#197=VERTEX_POINT('',#195);
#198=CARTESIAN_POINT('',(5.5E1,3.055684941437E1,0.E0));
#199=VERTEX_POINT('',#198);
#200=CARTESIAN_POINT('',(5.5E1,3.055684941437E1,1.5E0));
#201=VERTEX_POINT('',#200);
#202=CARTESIAN_POINT('',(5.5E1,8.E-1,0.E0));
#203=CARTESIAN_POINT('',(5.47E1,5.E-1,0.E0));
#204=VERTEX_POINT('',#202);
#205=VERTEX_POINT('',#203);
#206=CARTESIAN_POINT('',(5.47E1,5.E-1,1.5E0));
#207=VERTEX_POINT('',#206);
#208=CARTESIAN_POINT('',(5.5E1,8.E-1,1.5E0));
#209=VERTEX_POINT('',#208);
#210=CARTESIAN_POINT('',(-5.402395905722E1,4.172614672282E1,0.E0));
#211=CARTESIAN_POINT('',(-5.372510064779E1,4.2E1,0.E0));
#212=VERTEX_POINT('',#210);
#213=VERTEX_POINT('',#211);
#214=CARTESIAN_POINT('',(-5.372510064779E1,4.2E1,1.5E0));
#215=VERTEX_POINT('',#214);
#216=CARTESIAN_POINT('',(-5.402395905722E1,4.172614672282E1,1.5E0));
#217=VERTEX_POINT('',#216);
#218=CARTESIAN_POINT('',(-5.5E1,3.055684941437E1,1.5E0));
#219=CARTESIAN_POINT('',(-5.5E1,3.055684941437E1,0.E0));
#220=VERTEX_POINT('',#218);
#221=VERTEX_POINT('',#219);
#222=CARTESIAN_POINT('',(-5.499885840943E1,3.058299613719E1,0.E0));
#223=VERTEX_POINT('',#222);
#224=CARTESIAN_POINT('',(-5.499885840943E1,3.058299613719E1,1.5E0));
#225=VERTEX_POINT('',#224);
#226=CARTESIAN_POINT('',(-5.47E1,5.E-1,0.E0));
#227=CARTESIAN_POINT('',(-5.5E1,8.E-1,0.E0));
#228=VERTEX_POINT('',#226);
#229=VERTEX_POINT('',#227);
#230=CARTESIAN_POINT('',(-5.5E1,8.E-1,1.5E0));
#231=VERTEX_POINT('',#230);
#232=CARTESIAN_POINT('',(-5.47E1,5.E-1,1.5E0));
#233=VERTEX_POINT('',#232);
#234=CARTESIAN_POINT('',(0.E0,2.225E1,8.E-1));
#235=CARTESIAN_POINT('',(0.E0,1.925E1,8.E-1));
#236=VERTEX_POINT('',#234);
#237=VERTEX_POINT('',#235);
#238=CARTESIAN_POINT('',(0.E0,2.295E1,1.5E0));
#239=CARTESIAN_POINT('',(0.E0,1.855E1,1.5E0));
#240=VERTEX_POINT('',#238);
#241=VERTEX_POINT('',#239);
#242=CARTESIAN_POINT('',(0.E0,0.E0,1.5E0));
#243=DIRECTION('',(0.E0,0.E0,1.E0));
#244=DIRECTION('',(1.E0,0.E0,0.E0));
#245=AXIS2_PLACEMENT_3D('',#242,#243,#244);
#246=PLANE('',#245);
#248=ORIENTED_EDGE('',*,*,#247,.F.);
#250=ORIENTED_EDGE('',*,*,#249,.F.);
#252=ORIENTED_EDGE('',*,*,#251,.F.);
#254=ORIENTED_EDGE('',*,*,#253,.F.);
#256=ORIENTED_EDGE('',*,*,#255,.T.);
#258=ORIENTED_EDGE('',*,*,#257,.F.);
#260=ORIENTED_EDGE('',*,*,#259,.F.);
#262=ORIENTED_EDGE('',*,*,#261,.F.);
#264=ORIENTED_EDGE('',*,*,#263,.F.);
#266=ORIENTED_EDGE('',*,*,#265,.F.);
#268=ORIENTED_EDGE('',*,*,#267,.T.);
#270=ORIENTED_EDGE('',*,*,#269,.F.);
#271=EDGE_LOOP('',(#248,#250,#252,#254,#256,#258,#260,#262,#264,#266,#268,
#270));
#272=FACE_OUTER_BOUND('',#271,.F.);
#274=ORIENTED_EDGE('',*,*,#273,.T.);
#276=ORIENTED_EDGE('',*,*,#275,.T.);
#277=EDGE_LOOP('',(#274,#276));
#278=FACE_BOUND('',#277,.F.);
#279=ADVANCED_FACE('',(#272,#278),#246,.T.);
#280=CARTESIAN_POINT('',(-5.372510064779E1,4.17E1,6.7144E0));
#281=DIRECTION('',(0.E0,0.E0,-1.E0));
#282=DIRECTION('',(-9.961946980917E-1,8.715574274765E-2,0.E0));
#283=AXIS2_PLACEMENT_3D('',#280,#281,#282);
#284=CYLINDRICAL_SURFACE('',#283,3.E-1);
#286=ORIENTED_EDGE('',*,*,#285,.T.);
#288=ORIENTED_EDGE('',*,*,#287,.F.);
#289=ORIENTED_EDGE('',*,*,#247,.T.);
#291=ORIENTED_EDGE('',*,*,#290,.T.);
#292=EDGE_LOOP('',(#286,#288,#289,#291));
#293=FACE_OUTER_BOUND('',#292,.F.);
#294=ADVANCED_FACE('',(#293),#284,.T.);
#295=CARTESIAN_POINT('',(0.E0,0.E0,0.E0));
#296=DIRECTION('',(0.E0,0.E0,1.E0));
#297=DIRECTION('',(1.E0,0.E0,0.E0));
#298=AXIS2_PLACEMENT_3D('',#295,#296,#297);
#299=PLANE('',#298);
#300=ORIENTED_EDGE('',*,*,#285,.F.);
#302=ORIENTED_EDGE('',*,*,#301,.T.);
#304=ORIENTED_EDGE('',*,*,#303,.T.);
#306=ORIENTED_EDGE('',*,*,#305,.T.);
#308=ORIENTED_EDGE('',*,*,#307,.F.);
#310=ORIENTED_EDGE('',*,*,#309,.T.);
#312=ORIENTED_EDGE('',*,*,#311,.F.);
#314=ORIENTED_EDGE('',*,*,#313,.T.);
#316=ORIENTED_EDGE('',*,*,#315,.T.);
#318=ORIENTED_EDGE('',*,*,#317,.T.);
#320=ORIENTED_EDGE('',*,*,#319,.F.);
#322=ORIENTED_EDGE('',*,*,#321,.T.);
#323=EDGE_LOOP('',(#300,#302,#304,#306,#308,#310,#312,#314,#316,#318,#320,
#322));
#324=FACE_OUTER_BOUND('',#323,.F.);
#325=ADVANCED_FACE('',(#324),#299,.F.);
#326=CARTESIAN_POINT('',(-5.4E1,4.2E1,0.E0));
#327=DIRECTION('',(-9.961946980917E-1,8.715574274766E-2,0.E0));
#328=DIRECTION('',(-8.715574274766E-2,-9.961946980917E-1,0.E0));
#329=AXIS2_PLACEMENT_3D('',#326,#327,#328);
#330=PLANE('',#329);
#331=ORIENTED_EDGE('',*,*,#290,.F.);
#332=ORIENTED_EDGE('',*,*,#269,.T.);
#334=ORIENTED_EDGE('',*,*,#333,.T.);
#335=ORIENTED_EDGE('',*,*,#301,.F.);
#336=EDGE_LOOP('',(#331,#332,#334,#335));
#337=FACE_OUTER_BOUND('',#336,.F.);
#338=ADVANCED_FACE('',(#337),#330,.T.);
#339=CARTESIAN_POINT('',(-5.47E1,3.055684941437E1,6.7144E0));
#340=DIRECTION('',(0.E0,0.E0,-1.E0));
#341=DIRECTION('',(-1.E0,0.E0,0.E0));
#342=AXIS2_PLACEMENT_3D('',#339,#340,#341);
#343=CYLINDRICAL_SURFACE('',#342,3.E-1);
#345=ORIENTED_EDGE('',*,*,#344,.T.);
#346=ORIENTED_EDGE('',*,*,#303,.F.);
#347=ORIENTED_EDGE('',*,*,#333,.F.);
#348=ORIENTED_EDGE('',*,*,#267,.F.);
#349=EDGE_LOOP('',(#345,#346,#347,#348));
#350=FACE_OUTER_BOUND('',#349,.F.);
#351=ADVANCED_FACE('',(#350),#343,.T.);
#352=CARTESIAN_POINT('',(-5.5E1,3.056994769724E1,0.E0));
#353=DIRECTION('',(-1.E0,0.E0,0.E0));
#354=DIRECTION('',(0.E0,-1.E0,0.E0));
#355=AXIS2_PLACEMENT_3D('',#352,#353,#354);
#356=PLANE('',#355);
#357=ORIENTED_EDGE('',*,*,#344,.F.);
#358=ORIENTED_EDGE('',*,*,#265,.T.);
#360=ORIENTED_EDGE('',*,*,#359,.T.);
#361=ORIENTED_EDGE('',*,*,#305,.F.);
#362=EDGE_LOOP('',(#357,#358,#360,#361));
#363=FACE_OUTER_BOUND('',#362,.F.);
#364=ADVANCED_FACE('',(#363),#356,.T.);
#365=CARTESIAN_POINT('',(-5.47E1,8.E-1,6.7144E0));
#366=DIRECTION('',(0.E0,0.E0,-1.E0));
#367=DIRECTION('',(0.E0,-1.E0,0.E0));
#368=AXIS2_PLACEMENT_3D('',#365,#366,#367);
#369=CYLINDRICAL_SURFACE('',#368,3.E-1);
#370=ORIENTED_EDGE('',*,*,#307,.T.);
#371=ORIENTED_EDGE('',*,*,#359,.F.);
#372=ORIENTED_EDGE('',*,*,#263,.T.);
#374=ORIENTED_EDGE('',*,*,#373,.T.);
#375=EDGE_LOOP('',(#370,#371,#372,#374));
#376=FACE_OUTER_BOUND('',#375,.F.);
#377=ADVANCED_FACE('',(#376),#369,.T.);
#378=CARTESIAN_POINT('',(-5.5E1,5.E-1,0.E0));
#379=DIRECTION('',(0.E0,-1.E0,0.E0));
#380=DIRECTION('',(1.E0,0.E0,0.E0));
#381=AXIS2_PLACEMENT_3D('',#378,#379,#380);
#382=PLANE('',#381);
#383=ORIENTED_EDGE('',*,*,#373,.F.);
#384=ORIENTED_EDGE('',*,*,#261,.T.);
#386=ORIENTED_EDGE('',*,*,#385,.T.);
#387=ORIENTED_EDGE('',*,*,#309,.F.);
#388=EDGE_LOOP('',(#383,#384,#386,#387));
#389=FACE_OUTER_BOUND('',#388,.F.);
#390=ADVANCED_FACE('',(#389),#382,.T.);
#391=CARTESIAN_POINT('',(5.47E1,8.E-1,6.7144E0));
#392=DIRECTION('',(0.E0,0.E0,-1.E0));
#393=DIRECTION('',(1.E0,0.E0,0.E0));
#394=AXIS2_PLACEMENT_3D('',#391,#392,#393);
#395=CYLINDRICAL_SURFACE('',#394,3.E-1);
#396=ORIENTED_EDGE('',*,*,#311,.T.);
#397=ORIENTED_EDGE('',*,*,#385,.F.);
#398=ORIENTED_EDGE('',*,*,#259,.T.);
#400=ORIENTED_EDGE('',*,*,#399,.T.);
#401=EDGE_LOOP('',(#396,#397,#398,#400));
#402=FACE_OUTER_BOUND('',#401,.F.);
#403=ADVANCED_FACE('',(#402),#395,.T.);
#404=CARTESIAN_POINT('',(5.5E1,5.E-1,0.E0));
#405=DIRECTION('',(1.E0,0.E0,0.E0));
#406=DIRECTION('',(0.E0,1.E0,0.E0));
#407=AXIS2_PLACEMENT_3D('',#404,#405,#406);
#408=PLANE('',#407);
#410=ORIENTED_EDGE('',*,*,#409,.T.);
#411=ORIENTED_EDGE('',*,*,#313,.F.);
#412=ORIENTED_EDGE('',*,*,#399,.F.);
#413=ORIENTED_EDGE('',*,*,#257,.T.);
#414=EDGE_LOOP('',(#410,#411,#412,#413));
#415=FACE_OUTER_BOUND('',#414,.F.);
#416=ADVANCED_FACE('',(#415),#408,.T.);
#417=CARTESIAN_POINT('',(5.47E1,3.055684941437E1,6.7144E0));
#418=DIRECTION('',(0.E0,0.E0,-1.E0));
#419=DIRECTION('',(9.961946980917E-1,8.715574274767E-2,0.E0));
#420=AXIS2_PLACEMENT_3D('',#417,#418,#419);
#421=CYLINDRICAL_SURFACE('',#420,3.E-1);
#423=ORIENTED_EDGE('',*,*,#422,.T.);
#424=ORIENTED_EDGE('',*,*,#315,.F.);
#425=ORIENTED_EDGE('',*,*,#409,.F.);
#426=ORIENTED_EDGE('',*,*,#255,.F.);
#427=EDGE_LOOP('',(#423,#424,#425,#426));
#428=FACE_OUTER_BOUND('',#427,.F.);
#429=ADVANCED_FACE('',(#428),#421,.T.);
#430=CARTESIAN_POINT('',(5.5E1,3.056994769724E1,0.E0));
#431=DIRECTION('',(9.961946980917E-1,8.715574274766E-2,0.E0));
#432=DIRECTION('',(-8.715574274766E-2,9.961946980917E-1,0.E0));
#433=AXIS2_PLACEMENT_3D('',#430,#431,#432);
#434=PLANE('',#433);
#436=ORIENTED_EDGE('',*,*,#435,.T.);
#437=ORIENTED_EDGE('',*,*,#317,.F.);
#438=ORIENTED_EDGE('',*,*,#422,.F.);
#439=ORIENTED_EDGE('',*,*,#253,.T.);
#440=EDGE_LOOP('',(#436,#437,#438,#439));
#441=FACE_OUTER_BOUND('',#440,.F.);
#442=ADVANCED_FACE('',(#441),#434,.T.);
#443=CARTESIAN_POINT('',(5.372510064779E1,4.17E1,6.7144E0));
#444=DIRECTION('',(0.E0,0.E0,-1.E0));
#445=DIRECTION('',(0.E0,1.E0,0.E0));
#446=AXIS2_PLACEMENT_3D('',#443,#444,#445);
#447=CYLINDRICAL_SURFACE('',#446,3.E-1);
#448=ORIENTED_EDGE('',*,*,#319,.T.);
#449=ORIENTED_EDGE('',*,*,#435,.F.);
#450=ORIENTED_EDGE('',*,*,#251,.T.);
#452=ORIENTED_EDGE('',*,*,#451,.T.);
#453=EDGE_LOOP('',(#448,#449,#450,#452));
#454=FACE_OUTER_BOUND('',#453,.F.);
#455=ADVANCED_FACE('',(#454),#447,.T.);
#456=CARTESIAN_POINT('',(5.4E1,4.2E1,0.E0));
#457=DIRECTION('',(0.E0,1.E0,0.E0));
#458=DIRECTION('',(-1.E0,0.E0,0.E0));
#459=AXIS2_PLACEMENT_3D('',#456,#457,#458);
#460=PLANE('',#459);
#461=ORIENTED_EDGE('',*,*,#287,.T.);
#462=ORIENTED_EDGE('',*,*,#321,.F.);
#463=ORIENTED_EDGE('',*,*,#451,.F.);
#464=ORIENTED_EDGE('',*,*,#249,.T.);
#465=EDGE_LOOP('',(#461,#462,#463,#464));
#466=FACE_OUTER_BOUND('',#465,.F.);
#467=ADVANCED_FACE('',(#466),#460,.T.);
#468=CARTESIAN_POINT('',(0.E0,2.075E1,1.15E0));
#469=DIRECTION('',(0.E0,0.E0,1.E0));
#470=DIRECTION('',(0.E0,1.E0,0.E0));
#471=AXIS2_PLACEMENT_3D('',#468,#469,#470);
#472=CONICAL_SURFACE('',#471,1.85E0,4.5E1);
#473=ORIENTED_EDGE('',*,*,#273,.F.);
#475=ORIENTED_EDGE('',*,*,#474,.F.);
#477=ORIENTED_EDGE('',*,*,#476,.T.);
#479=ORIENTED_EDGE('',*,*,#478,.T.);
#480=EDGE_LOOP('',(#473,#475,#477,#479));
#481=FACE_OUTER_BOUND('',#480,.F.);
#482=ADVANCED_FACE('',(#481),#472,.F.);
#483=CARTESIAN_POINT('',(0.E0,2.075E1,1.15E0));
#484=DIRECTION('',(0.E0,0.E0,1.E0));
#485=DIRECTION('',(0.E0,1.E0,0.E0));
#486=AXIS2_PLACEMENT_3D('',#483,#484,#485);
#487=CONICAL_SURFACE('',#486,1.85E0,4.5E1);
#488=ORIENTED_EDGE('',*,*,#275,.F.);
#489=ORIENTED_EDGE('',*,*,#478,.F.);
#491=ORIENTED_EDGE('',*,*,#490,.F.);
#492=ORIENTED_EDGE('',*,*,#474,.T.);
#493=EDGE_LOOP('',(#488,#489,#491,#492));
#494=FACE_OUTER_BOUND('',#493,.F.);
#495=ADVANCED_FACE('',(#494),#487,.F.);
#496=CARTESIAN_POINT('',(0.E0,2.075E1,8.E-1));
#497=DIRECTION('',(0.E0,0.E0,1.E0));
#498=DIRECTION('',(0.E0,1.E0,0.E0));
#499=AXIS2_PLACEMENT_3D('',#496,#497,#498);
#500=PLANE('',#499);
#501=ORIENTED_EDGE('',*,*,#490,.T.);
#502=ORIENTED_EDGE('',*,*,#476,.F.);
#503=EDGE_LOOP('',(#501,#502));
#504=FACE_OUTER_BOUND('',#503,.F.);
#505=ADVANCED_FACE('',(#504),#500,.T.);
#506=CLOSED_SHELL('',(#279,#294,#325,#338,#351,#364,#377,#390,#403,#416,#429,
#442,#455,#467,#482,#495,#505));
#507=MANIFOLD_SOLID_BREP('',#506);
#509=DIMENSIONAL_EXPONENTS(0.E0,0.E0,0.E0,0.E0,0.E0,0.E0,0.E0);
#511=PLANE_ANGLE_MEASURE_WITH_UNIT(PLANE_ANGLE_MEASURE(1.745329251994E-2),#510);
#512=(CONVERSION_BASED_UNIT('DEGREE',#511)NAMED_UNIT(*)PLANE_ANGLE_UNIT());
#514=UNCERTAINTY_MEASURE_WITH_UNIT(LENGTH_MEASURE(1.2E-3),#508,'closure',
'Maximum model space distance between geometric entities at asserted connectivities');
#515=(GEOMETRIC_REPRESENTATION_CONTEXT(3)GLOBAL_UNCERTAINTY_ASSIGNED_CONTEXT((
#514))GLOBAL_UNIT_ASSIGNED_CONTEXT((#508,#512,#513))REPRESENTATION_CONTEXT
('ID1','3'));
#517=APPLICATION_CONTEXT(
'CONFIGURATION CONTROLLED 3D DESIGNS OF MECHANICAL PARTS AND ASSEMBLIES');
#518=APPLICATION_PROTOCOL_DEFINITION('international standard',
'config_control_design',1994,#517);
#519=DESIGN_CONTEXT('',#517,'design');
#520=MECHANICAL_CONTEXT('',#517,'mechanical');
#521=PRODUCT('PRK10_4A_AP','PRK10_4A_AP','NOT SPECIFIED',(#520));
#522=PRODUCT_DEFINITION_FORMATION_WITH_SPECIFIED_SOURCE('216','LAST_VERSION',
#521,.MADE.);
#526=PRODUCT_CATEGORY('part','');
#527=PRODUCT_RELATED_PRODUCT_CATEGORY('detail','',(#521));
#528=PRODUCT_CATEGORY_RELATIONSHIP('','',#526,#527);
#529=SECURITY_CLASSIFICATION_LEVEL('unclassified');
#530=SECURITY_CLASSIFICATION('','',#529);
#531=CC_DESIGN_SECURITY_CLASSIFICATION(#530,(#522));
#532=APPROVAL_STATUS('approved');
#533=APPROVAL(#532,'');
#534=CC_DESIGN_APPROVAL(#533,(#530,#522,#523));
#535=CALENDAR_DATE(119,8,10);
#536=COORDINATED_UNIVERSAL_TIME_OFFSET(2,0,.AHEAD.);
#537=LOCAL_TIME(14,35,1.E0,#536);
#538=DATE_AND_TIME(#535,#537);
#539=APPROVAL_DATE_TIME(#538,#533);
#540=DATE_TIME_ROLE('creation_date');
#541=CC_DESIGN_DATE_AND_TIME_ASSIGNMENT(#538,#540,(#523));
#542=DATE_TIME_ROLE('classification_date');
#543=CC_DESIGN_DATE_AND_TIME_ASSIGNMENT(#538,#542,(#530));
#544=PERSON('UNSPECIFIED','UNSPECIFIED',$,$,$,$);
#545=ORGANIZATION('UNSPECIFIED','UNSPECIFIED','UNSPECIFIED');
#546=PERSON_AND_ORGANIZATION(#544,#545);
#547=APPROVAL_ROLE('approver');
#548=APPROVAL_PERSON_ORGANIZATION(#546,#533,#547);
#549=PERSON_AND_ORGANIZATION_ROLE('creator');
#550=CC_DESIGN_PERSON_AND_ORGANIZATION_ASSIGNMENT(#546,#549,(#522,#523));
#551=PERSON_AND_ORGANIZATION_ROLE('design_supplier');
#552=CC_DESIGN_PERSON_AND_ORGANIZATION_ASSIGNMENT(#546,#551,(#522));
#553=PERSON_AND_ORGANIZATION_ROLE('classification_officer');
#554=CC_DESIGN_PERSON_AND_ORGANIZATION_ASSIGNMENT(#546,#553,(#530));
#555=PERSON_AND_ORGANIZATION_ROLE('design_owner');
#556=CC_DESIGN_PERSON_AND_ORGANIZATION_ASSIGNMENT(#546,#555,(#521));
#6=CIRCLE('',#5,3.E-1);
#15=CIRCLE('',#14,3.E-1);
#24=CIRCLE('',#23,3.E-1);
#33=CIRCLE('',#32,3.E-1);
#42=CIRCLE('',#41,3.E-1);
#51=CIRCLE('',#50,3.E-1);
#60=CIRCLE('',#59,2.2E0);
#65=CIRCLE('',#64,2.2E0);
#70=CIRCLE('',#69,3.E-1);
#79=CIRCLE('',#78,3.E-1);
#88=CIRCLE('',#87,3.E-1);
#97=CIRCLE('',#96,3.E-1);
#106=CIRCLE('',#105,3.E-1);
#115=CIRCLE('',#114,3.E-1);
#172=CIRCLE('',#171,1.5E0);
#181=CIRCLE('',#180,1.5E0);
#247=EDGE_CURVE('',#215,#217,#6,.T.);
#249=EDGE_CURVE('',#193,#215,#10,.T.);
#251=EDGE_CURVE('',#191,#193,#15,.T.);
#253=EDGE_CURVE('',#196,#191,#19,.T.);
#255=EDGE_CURVE('',#196,#201,#24,.T.);
#257=EDGE_CURVE('',#209,#201,#28,.T.);
#259=EDGE_CURVE('',#207,#209,#33,.T.);
#261=EDGE_CURVE('',#233,#207,#37,.T.);
#263=EDGE_CURVE('',#231,#233,#42,.T.);
#265=EDGE_CURVE('',#220,#231,#46,.T.);
#267=EDGE_CURVE('',#220,#225,#51,.T.);
#269=EDGE_CURVE('',#217,#225,#55,.T.);
#273=EDGE_CURVE('',#240,#241,#60,.T.);
#275=EDGE_CURVE('',#241,#240,#65,.T.);
#285=EDGE_CURVE('',#212,#213,#70,.T.);
#287=EDGE_CURVE('',#215,#213,#163,.T.);
#290=EDGE_CURVE('',#217,#212,#123,.T.);
#301=EDGE_CURVE('',#212,#223,#74,.T.);
#303=EDGE_CURVE('',#223,#221,#79,.T.);
#305=EDGE_CURVE('',#221,#229,#83,.T.);
#307=EDGE_CURVE('',#228,#229,#88,.T.);
#309=EDGE_CURVE('',#228,#205,#92,.T.);
#311=EDGE_CURVE('',#204,#205,#97,.T.);
#313=EDGE_CURVE('',#204,#199,#101,.T.);
#315=EDGE_CURVE('',#199,#197,#106,.T.);
#317=EDGE_CURVE('',#197,#189,#110,.T.);
#319=EDGE_CURVE('',#188,#189,#115,.T.);
#321=EDGE_CURVE('',#188,#213,#119,.T.);
#333=EDGE_CURVE('',#225,#223,#127,.T.);
#344=EDGE_CURVE('',#220,#221,#131,.T.);
#359=EDGE_CURVE('',#231,#229,#135,.T.);
#373=EDGE_CURVE('',#233,#228,#139,.T.);
#385=EDGE_CURVE('',#207,#205,#143,.T.);
#399=EDGE_CURVE('',#209,#204,#151,.T.);
#409=EDGE_CURVE('',#201,#199,#147,.T.);
#422=EDGE_CURVE('',#196,#197,#159,.T.);
#435=EDGE_CURVE('',#191,#189,#155,.T.);
#451=EDGE_CURVE('',#193,#188,#167,.T.);
#474=EDGE_CURVE('',#236,#240,#185,.T.);
#476=EDGE_CURVE('',#236,#237,#172,.T.);
#478=EDGE_CURVE('',#237,#241,#176,.T.);
#490=EDGE_CURVE('',#236,#237,#181,.T.);
#508=(LENGTH_UNIT()NAMED_UNIT(*)SI_UNIT(.MILLI.,.METRE.));
#510=(NAMED_UNIT(*)PLANE_ANGLE_UNIT()SI_UNIT($,.RADIAN.));
#513=(NAMED_UNIT(*)SI_UNIT($,.STERADIAN.)SOLID_ANGLE_UNIT());
#516=ADVANCED_BREP_SHAPE_REPRESENTATION('',(#507),#515);
#523=PRODUCT_DEFINITION('design','',#522,#519);
#524=PRODUCT_DEFINITION_SHAPE('','SHAPE FOR PRK10_4A_AP.',#523);
#525=SHAPE_DEFINITION_REPRESENTATION(#524,#516);
ENDSEC;
END-ISO-10303-21;
