ISO-10303-21;
HEADER;
/* Generated by software containing ST-Developer
 * from STEP Tools, Inc. (www.steptools.com) 
 */
/* OPTION: using custom schema-name function */

FILE_DESCRIPTION(
/* description */ (''),
/* implementation_level */ '2;1');

FILE_NAME(
/* name */ '28517_4_KDS-Inlay-2.stp',
/* time_stamp */ '2022-11-29T11:38:05+01:00',
/* author */ (''),
/* organization */ (''),
/* preprocessor_version */ 'ST-DEVELOPER v16.7',
/* originating_system */ 'SIEMENS PLM Software NX 12.0',
/* authorisation */ '');

FILE_SCHEMA (('AUTOMOTIVE_DESIGN { 1 0 10303 214 3 1 1 1 }'));
ENDSEC;

DATA;
#10=SHAPE_REPRESENTATION_RELATIONSHIP('None',
'relationship between 28517_4_KDS-Inlay-2-None and 28517_4_KDS-Inlay-2
-None',#22,#11);
#11=ADVANCED_BREP_SHAPE_REPRESENTATION('28517_4_KDS-Inlay-2-None',(#32),
#583);
#12=SHAPE_DEFINITION_REPRESENTATION(#13,#22);
#13=PRODUCT_DEFINITION_SHAPE('','',#14);
#14=PRODUCT_DEFINITION(' ','',#16,#15);
#15=PRODUCT_DEFINITION_CONTEXT('part definition',#21,'design');
#16=PRODUCT_DEFINITION_FORMATION_WITH_SPECIFIED_SOURCE(' ',' ',#18,
 .NOT_KNOWN.);
#17=PRODUCT_RELATED_PRODUCT_CATEGORY('part','',(#18));
#18=PRODUCT('28517_4_KDS-Inlay-2','28517_4_KDS-Inlay-2',' ',(#19));
#19=PRODUCT_CONTEXT(' ',#21,'mechanical');
#20=APPLICATION_PROTOCOL_DEFINITION('international standard',
'automotive_design',2010,#21);
#21=APPLICATION_CONTEXT(
'core data for automotive mechanical design processes');
#22=SHAPE_REPRESENTATION('28517_4_KDS-Inlay-2-None',(#378),#583);
#23=PRESENTATION_LAYER_ASSIGNMENT('1','Layer 1',(#32));
#24=STYLED_ITEM('',(#25),#32);
#25=PRESENTATION_STYLE_ASSIGNMENT((#26));
#26=SURFACE_STYLE_USAGE(.BOTH.,#27);
#27=SURFACE_SIDE_STYLE('',(#28));
#28=SURFACE_STYLE_FILL_AREA(#29);
#29=FILL_AREA_STYLE('',(#30));
#30=FILL_AREA_STYLE_COLOUR('',#31);
#31=COLOUR_RGB('Medium Steel',0.596063172350652,0.666666666666667,0.686259250782025);
#32=MANIFOLD_SOLID_BREP('',#33);
#33=CLOSED_SHELL('',(#34,#35,#36,#37,#38,#39,#40,#41,#42,#43,#44,#45,#46,
#47,#48,#49,#50,#51));
#34=ADVANCED_FACE('',(#70),#52,.T.);
#35=ADVANCED_FACE('',(#71),#53,.T.);
#36=ADVANCED_FACE('',(#72),#54,.T.);
#37=ADVANCED_FACE('',(#73),#55,.T.);
#38=ADVANCED_FACE('',(#74),#56,.T.);
#39=ADVANCED_FACE('',(#75),#57,.T.);
#40=ADVANCED_FACE('',(#76),#58,.T.);
#41=ADVANCED_FACE('',(#77),#59,.T.);
#42=ADVANCED_FACE('',(#78),#60,.T.);
#43=ADVANCED_FACE('',(#79),#61,.T.);
#44=ADVANCED_FACE('',(#80),#62,.T.);
#45=ADVANCED_FACE('',(#81),#63,.T.);
#46=ADVANCED_FACE('',(#82),#64,.T.);
#47=ADVANCED_FACE('',(#83),#65,.T.);
#48=ADVANCED_FACE('',(#84),#66,.T.);
#49=ADVANCED_FACE('',(#85),#67,.T.);
#50=ADVANCED_FACE('',(#86),#68,.T.);
#51=ADVANCED_FACE('',(#87),#69,.T.);
#52=PLANE('',#379);
#53=PLANE('',#380);
#54=PLANE('',#381);
#55=PLANE('',#382);
#56=PLANE('',#383);
#57=PLANE('',#384);
#58=PLANE('',#385);
#59=PLANE('',#386);
#60=PLANE('',#387);
#61=PLANE('',#388);
#62=PLANE('',#389);
#63=PLANE('',#390);
#64=PLANE('',#391);
#65=PLANE('',#392);
#66=PLANE('',#393);
#67=PLANE('',#394);
#68=PLANE('',#395);
#69=PLANE('',#396);
#70=FACE_OUTER_BOUND('',#88,.T.);
#71=FACE_OUTER_BOUND('',#89,.T.);
#72=FACE_OUTER_BOUND('',#90,.T.);
#73=FACE_OUTER_BOUND('',#91,.T.);
#74=FACE_OUTER_BOUND('',#92,.T.);
#75=FACE_OUTER_BOUND('',#93,.T.);
#76=FACE_OUTER_BOUND('',#94,.T.);
#77=FACE_OUTER_BOUND('',#95,.T.);
#78=FACE_OUTER_BOUND('',#96,.T.);
#79=FACE_OUTER_BOUND('',#97,.T.);
#80=FACE_OUTER_BOUND('',#98,.T.);
#81=FACE_OUTER_BOUND('',#99,.T.);
#82=FACE_OUTER_BOUND('',#100,.T.);
#83=FACE_OUTER_BOUND('',#101,.T.);
#84=FACE_OUTER_BOUND('',#102,.T.);
#85=FACE_OUTER_BOUND('',#103,.T.);
#86=FACE_OUTER_BOUND('',#104,.T.);
#87=FACE_OUTER_BOUND('',#105,.T.);
#88=EDGE_LOOP('',(#106,#107,#108,#109));
#89=EDGE_LOOP('',(#110,#111,#112,#113,#114,#115,#116,#117));
#90=EDGE_LOOP('',(#118,#119,#120,#121,#122,#123,#124,#125));
#91=EDGE_LOOP('',(#126,#127,#128,#129));
#92=EDGE_LOOP('',(#130,#131,#132,#133));
#93=EDGE_LOOP('',(#134,#135,#136,#137));
#94=EDGE_LOOP('',(#138,#139,#140,#141));
#95=EDGE_LOOP('',(#142,#143,#144,#145,#146,#147,#148,#149));
#96=EDGE_LOOP('',(#150,#151,#152,#153,#154,#155,#156,#157));
#97=EDGE_LOOP('',(#158,#159,#160,#161,#162,#163,#164,#165));
#98=EDGE_LOOP('',(#166,#167,#168,#169));
#99=EDGE_LOOP('',(#170,#171,#172,#173,#174,#175));
#100=EDGE_LOOP('',(#176,#177,#178,#179));
#101=EDGE_LOOP('',(#180,#181,#182,#183));
#102=EDGE_LOOP('',(#184,#185,#186,#187));
#103=EDGE_LOOP('',(#188,#189,#190,#191));
#104=EDGE_LOOP('',(#192,#193,#194,#195,#196,#197));
#105=EDGE_LOOP('',(#198,#199,#200,#201));
#106=ORIENTED_EDGE('',*,*,#234,.F.);
#107=ORIENTED_EDGE('',*,*,#235,.F.);
#108=ORIENTED_EDGE('',*,*,#236,.F.);
#109=ORIENTED_EDGE('',*,*,#237,.T.);
#110=ORIENTED_EDGE('',*,*,#238,.F.);
#111=ORIENTED_EDGE('',*,*,#239,.T.);
#112=ORIENTED_EDGE('',*,*,#240,.T.);
#113=ORIENTED_EDGE('',*,*,#241,.F.);
#114=ORIENTED_EDGE('',*,*,#242,.F.);
#115=ORIENTED_EDGE('',*,*,#243,.T.);
#116=ORIENTED_EDGE('',*,*,#244,.T.);
#117=ORIENTED_EDGE('',*,*,#245,.F.);
#118=ORIENTED_EDGE('',*,*,#246,.T.);
#119=ORIENTED_EDGE('',*,*,#247,.F.);
#120=ORIENTED_EDGE('',*,*,#248,.F.);
#121=ORIENTED_EDGE('',*,*,#249,.F.);
#122=ORIENTED_EDGE('',*,*,#250,.F.);
#123=ORIENTED_EDGE('',*,*,#251,.T.);
#124=ORIENTED_EDGE('',*,*,#252,.T.);
#125=ORIENTED_EDGE('',*,*,#253,.F.);
#126=ORIENTED_EDGE('',*,*,#242,.T.);
#127=ORIENTED_EDGE('',*,*,#254,.T.);
#128=ORIENTED_EDGE('',*,*,#255,.F.);
#129=ORIENTED_EDGE('',*,*,#256,.T.);
#130=ORIENTED_EDGE('',*,*,#257,.T.);
#131=ORIENTED_EDGE('',*,*,#258,.T.);
#132=ORIENTED_EDGE('',*,*,#259,.T.);
#133=ORIENTED_EDGE('',*,*,#252,.F.);
#134=ORIENTED_EDGE('',*,*,#250,.T.);
#135=ORIENTED_EDGE('',*,*,#260,.T.);
#136=ORIENTED_EDGE('',*,*,#261,.F.);
#137=ORIENTED_EDGE('',*,*,#262,.T.);
#138=ORIENTED_EDGE('',*,*,#263,.T.);
#139=ORIENTED_EDGE('',*,*,#264,.T.);
#140=ORIENTED_EDGE('',*,*,#244,.F.);
#141=ORIENTED_EDGE('',*,*,#265,.T.);
#142=ORIENTED_EDGE('',*,*,#266,.F.);
#143=ORIENTED_EDGE('',*,*,#257,.F.);
#144=ORIENTED_EDGE('',*,*,#251,.F.);
#145=ORIENTED_EDGE('',*,*,#262,.F.);
#146=ORIENTED_EDGE('',*,*,#267,.F.);
#147=ORIENTED_EDGE('',*,*,#265,.F.);
#148=ORIENTED_EDGE('',*,*,#243,.F.);
#149=ORIENTED_EDGE('',*,*,#256,.F.);
#150=ORIENTED_EDGE('',*,*,#268,.T.);
#151=ORIENTED_EDGE('',*,*,#269,.T.);
#152=ORIENTED_EDGE('',*,*,#248,.T.);
#153=ORIENTED_EDGE('',*,*,#270,.T.);
#154=ORIENTED_EDGE('',*,*,#235,.T.);
#155=ORIENTED_EDGE('',*,*,#271,.T.);
#156=ORIENTED_EDGE('',*,*,#238,.T.);
#157=ORIENTED_EDGE('',*,*,#272,.T.);
#158=ORIENTED_EDGE('',*,*,#273,.F.);
#159=ORIENTED_EDGE('',*,*,#274,.F.);
#160=ORIENTED_EDGE('',*,*,#275,.F.);
#161=ORIENTED_EDGE('',*,*,#240,.F.);
#162=ORIENTED_EDGE('',*,*,#276,.F.);
#163=ORIENTED_EDGE('',*,*,#237,.F.);
#164=ORIENTED_EDGE('',*,*,#277,.F.);
#165=ORIENTED_EDGE('',*,*,#246,.F.);
#166=ORIENTED_EDGE('',*,*,#259,.F.);
#167=ORIENTED_EDGE('',*,*,#278,.F.);
#168=ORIENTED_EDGE('',*,*,#273,.T.);
#169=ORIENTED_EDGE('',*,*,#253,.T.);
#170=ORIENTED_EDGE('',*,*,#279,.F.);
#171=ORIENTED_EDGE('',*,*,#268,.F.);
#172=ORIENTED_EDGE('',*,*,#280,.T.);
#173=ORIENTED_EDGE('',*,*,#263,.F.);
#174=ORIENTED_EDGE('',*,*,#267,.T.);
#175=ORIENTED_EDGE('',*,*,#261,.T.);
#176=ORIENTED_EDGE('',*,*,#264,.F.);
#177=ORIENTED_EDGE('',*,*,#280,.F.);
#178=ORIENTED_EDGE('',*,*,#272,.F.);
#179=ORIENTED_EDGE('',*,*,#245,.T.);
#180=ORIENTED_EDGE('',*,*,#271,.F.);
#181=ORIENTED_EDGE('',*,*,#234,.T.);
#182=ORIENTED_EDGE('',*,*,#276,.T.);
#183=ORIENTED_EDGE('',*,*,#239,.F.);
#184=ORIENTED_EDGE('',*,*,#277,.T.);
#185=ORIENTED_EDGE('',*,*,#236,.T.);
#186=ORIENTED_EDGE('',*,*,#270,.F.);
#187=ORIENTED_EDGE('',*,*,#247,.T.);
#188=ORIENTED_EDGE('',*,*,#260,.F.);
#189=ORIENTED_EDGE('',*,*,#249,.T.);
#190=ORIENTED_EDGE('',*,*,#269,.F.);
#191=ORIENTED_EDGE('',*,*,#279,.T.);
#192=ORIENTED_EDGE('',*,*,#258,.F.);
#193=ORIENTED_EDGE('',*,*,#266,.T.);
#194=ORIENTED_EDGE('',*,*,#255,.T.);
#195=ORIENTED_EDGE('',*,*,#281,.T.);
#196=ORIENTED_EDGE('',*,*,#274,.T.);
#197=ORIENTED_EDGE('',*,*,#278,.T.);
#198=ORIENTED_EDGE('',*,*,#254,.F.);
#199=ORIENTED_EDGE('',*,*,#241,.T.);
#200=ORIENTED_EDGE('',*,*,#275,.T.);
#201=ORIENTED_EDGE('',*,*,#281,.F.);
#202=VERTEX_POINT('',#485);
#203=VERTEX_POINT('',#486);
#204=VERTEX_POINT('',#488);
#205=VERTEX_POINT('',#490);
#206=VERTEX_POINT('',#494);
#207=VERTEX_POINT('',#495);
#208=VERTEX_POINT('',#497);
#209=VERTEX_POINT('',#499);
#210=VERTEX_POINT('',#501);
#211=VERTEX_POINT('',#503);
#212=VERTEX_POINT('',#505);
#213=VERTEX_POINT('',#507);
#214=VERTEX_POINT('',#511);
#215=VERTEX_POINT('',#512);
#216=VERTEX_POINT('',#514);
#217=VERTEX_POINT('',#516);
#218=VERTEX_POINT('',#518);
#219=VERTEX_POINT('',#520);
#220=VERTEX_POINT('',#522);
#221=VERTEX_POINT('',#524);
#222=VERTEX_POINT('',#528);
#223=VERTEX_POINT('',#530);
#224=VERTEX_POINT('',#534);
#225=VERTEX_POINT('',#536);
#226=VERTEX_POINT('',#540);
#227=VERTEX_POINT('',#542);
#228=VERTEX_POINT('',#546);
#229=VERTEX_POINT('',#547);
#230=VERTEX_POINT('',#555);
#231=VERTEX_POINT('',#556);
#232=VERTEX_POINT('',#563);
#233=VERTEX_POINT('',#565);
#234=EDGE_CURVE('',#202,#203,#282,.T.);
#235=EDGE_CURVE('',#204,#202,#283,.T.);
#236=EDGE_CURVE('',#205,#204,#284,.T.);
#237=EDGE_CURVE('',#205,#203,#285,.T.);
#238=EDGE_CURVE('',#206,#207,#286,.T.);
#239=EDGE_CURVE('',#206,#208,#287,.T.);
#240=EDGE_CURVE('',#208,#209,#288,.T.);
#241=EDGE_CURVE('',#210,#209,#289,.T.);
#242=EDGE_CURVE('',#211,#210,#290,.T.);
#243=EDGE_CURVE('',#211,#212,#291,.T.);
#244=EDGE_CURVE('',#212,#213,#292,.T.);
#245=EDGE_CURVE('',#207,#213,#293,.T.);
#246=EDGE_CURVE('',#214,#215,#294,.T.);
#247=EDGE_CURVE('',#216,#215,#295,.T.);
#248=EDGE_CURVE('',#217,#216,#296,.T.);
#249=EDGE_CURVE('',#218,#217,#297,.T.);
#250=EDGE_CURVE('',#219,#218,#298,.T.);
#251=EDGE_CURVE('',#219,#220,#299,.T.);
#252=EDGE_CURVE('',#220,#221,#300,.T.);
#253=EDGE_CURVE('',#214,#221,#301,.T.);
#254=EDGE_CURVE('',#210,#222,#302,.T.);
#255=EDGE_CURVE('',#223,#222,#303,.T.);
#256=EDGE_CURVE('',#223,#211,#304,.T.);
#257=EDGE_CURVE('',#220,#224,#305,.T.);
#258=EDGE_CURVE('',#224,#225,#306,.T.);
#259=EDGE_CURVE('',#225,#221,#307,.T.);
#260=EDGE_CURVE('',#218,#226,#308,.T.);
#261=EDGE_CURVE('',#227,#226,#309,.T.);
#262=EDGE_CURVE('',#227,#219,#310,.T.);
#263=EDGE_CURVE('',#228,#229,#311,.T.);
#264=EDGE_CURVE('',#229,#213,#312,.T.);
#265=EDGE_CURVE('',#212,#228,#313,.T.);
#266=EDGE_CURVE('',#224,#223,#314,.T.);
#267=EDGE_CURVE('',#228,#227,#315,.T.);
#268=EDGE_CURVE('',#230,#231,#316,.T.);
#269=EDGE_CURVE('',#231,#217,#317,.T.);
#270=EDGE_CURVE('',#216,#204,#318,.T.);
#271=EDGE_CURVE('',#202,#206,#319,.T.);
#272=EDGE_CURVE('',#207,#230,#320,.T.);
#273=EDGE_CURVE('',#232,#214,#321,.T.);
#274=EDGE_CURVE('',#233,#232,#322,.T.);
#275=EDGE_CURVE('',#209,#233,#323,.T.);
#276=EDGE_CURVE('',#203,#208,#324,.T.);
#277=EDGE_CURVE('',#215,#205,#325,.T.);
#278=EDGE_CURVE('',#232,#225,#326,.T.);
#279=EDGE_CURVE('',#231,#226,#327,.T.);
#280=EDGE_CURVE('',#230,#229,#328,.T.);
#281=EDGE_CURVE('',#222,#233,#329,.T.);
#282=LINE('',#484,#330);
#283=LINE('',#487,#331);
#284=LINE('',#489,#332);
#285=LINE('',#491,#333);
#286=LINE('',#493,#334);
#287=LINE('',#496,#335);
#288=LINE('',#498,#336);
#289=LINE('',#500,#337);
#290=LINE('',#502,#338);
#291=LINE('',#504,#339);
#292=LINE('',#506,#340);
#293=LINE('',#508,#341);
#294=LINE('',#510,#342);
#295=LINE('',#513,#343);
#296=LINE('',#515,#344);
#297=LINE('',#517,#345);
#298=LINE('',#519,#346);
#299=LINE('',#521,#347);
#300=LINE('',#523,#348);
#301=LINE('',#525,#349);
#302=LINE('',#527,#350);
#303=LINE('',#529,#351);
#304=LINE('',#531,#352);
#305=LINE('',#533,#353);
#306=LINE('',#535,#354);
#307=LINE('',#537,#355);
#308=LINE('',#539,#356);
#309=LINE('',#541,#357);
#310=LINE('',#543,#358);
#311=LINE('',#545,#359);
#312=LINE('',#548,#360);
#313=LINE('',#549,#361);
#314=LINE('',#551,#362);
#315=LINE('',#552,#363);
#316=LINE('',#554,#364);
#317=LINE('',#557,#365);
#318=LINE('',#558,#366);
#319=LINE('',#559,#367);
#320=LINE('',#560,#368);
#321=LINE('',#562,#369);
#322=LINE('',#564,#370);
#323=LINE('',#566,#371);
#324=LINE('',#567,#372);
#325=LINE('',#568,#373);
#326=LINE('',#570,#374);
#327=LINE('',#572,#375);
#328=LINE('',#573,#376);
#329=LINE('',#579,#377);
#330=VECTOR('',#399,1.);
#331=VECTOR('',#400,1.);
#332=VECTOR('',#401,1.);
#333=VECTOR('',#402,1.);
#334=VECTOR('',#405,1.);
#335=VECTOR('',#406,1.);
#336=VECTOR('',#407,1.);
#337=VECTOR('',#408,1.);
#338=VECTOR('',#409,1.);
#339=VECTOR('',#410,1.);
#340=VECTOR('',#411,1.);
#341=VECTOR('',#412,1.);
#342=VECTOR('',#415,1.);
#343=VECTOR('',#416,1.);
#344=VECTOR('',#417,1.);
#345=VECTOR('',#418,1.);
#346=VECTOR('',#419,1.);
#347=VECTOR('',#420,1.);
#348=VECTOR('',#421,1.);
#349=VECTOR('',#422,1.);
#350=VECTOR('',#425,1.);
#351=VECTOR('',#426,1.);
#352=VECTOR('',#427,1.);
#353=VECTOR('',#430,1.);
#354=VECTOR('',#431,1.);
#355=VECTOR('',#432,1.);
#356=VECTOR('',#435,1.);
#357=VECTOR('',#436,1.);
#358=VECTOR('',#437,1.);
#359=VECTOR('',#440,1.);
#360=VECTOR('',#441,1.);
#361=VECTOR('',#442,1.);
#362=VECTOR('',#445,1.);
#363=VECTOR('',#446,1.);
#364=VECTOR('',#449,1.);
#365=VECTOR('',#450,1.);
#366=VECTOR('',#451,1.);
#367=VECTOR('',#452,1.);
#368=VECTOR('',#453,1.);
#369=VECTOR('',#456,1.);
#370=VECTOR('',#457,1.);
#371=VECTOR('',#458,1.);
#372=VECTOR('',#459,1.);
#373=VECTOR('',#460,1.);
#374=VECTOR('',#463,1.);
#375=VECTOR('',#466,1.);
#376=VECTOR('',#467,1.);
#377=VECTOR('',#478,1.);
#378=AXIS2_PLACEMENT_3D('',#483,#397,#398);
#379=AXIS2_PLACEMENT_3D('',#492,#403,#404);
#380=AXIS2_PLACEMENT_3D('',#509,#413,#414);
#381=AXIS2_PLACEMENT_3D('',#526,#423,#424);
#382=AXIS2_PLACEMENT_3D('',#532,#428,#429);
#383=AXIS2_PLACEMENT_3D('',#538,#433,#434);
#384=AXIS2_PLACEMENT_3D('',#544,#438,#439);
#385=AXIS2_PLACEMENT_3D('',#550,#443,#444);
#386=AXIS2_PLACEMENT_3D('',#553,#447,#448);
#387=AXIS2_PLACEMENT_3D('',#561,#454,#455);
#388=AXIS2_PLACEMENT_3D('',#569,#461,#462);
#389=AXIS2_PLACEMENT_3D('',#571,#464,#465);
#390=AXIS2_PLACEMENT_3D('',#574,#468,#469);
#391=AXIS2_PLACEMENT_3D('',#575,#470,#471);
#392=AXIS2_PLACEMENT_3D('',#576,#472,#473);
#393=AXIS2_PLACEMENT_3D('',#577,#474,#475);
#394=AXIS2_PLACEMENT_3D('',#578,#476,#477);
#395=AXIS2_PLACEMENT_3D('',#580,#479,#480);
#396=AXIS2_PLACEMENT_3D('',#581,#481,#482);
#397=DIRECTION('',(0.,0.,1.));
#398=DIRECTION('',(1.,0.,0.));
#399=DIRECTION('',(0.,1.,0.));
#400=DIRECTION('',(1.,0.,0.));
#401=DIRECTION('',(0.,-1.,0.));
#402=DIRECTION('',(1.,0.,0.));
#403=DIRECTION('',(0.,0.,-1.));
#404=DIRECTION('',(-1.,0.,0.));
#405=DIRECTION('',(1.,0.,0.));
#406=DIRECTION('',(0.,1.,0.));
#407=DIRECTION('',(1.,0.,0.));
#408=DIRECTION('',(0.,1.,0.));
#409=DIRECTION('',(-1.,0.,0.));
#410=DIRECTION('',(0.,-1.,0.));
#411=DIRECTION('',(-1.,0.,0.));
#412=DIRECTION('',(0.,1.,0.));
#413=DIRECTION('',(0.,0.,-1.));
#414=DIRECTION('',(-1.,0.,0.));
#415=DIRECTION('',(-1.,0.,0.));
#416=DIRECTION('',(0.,1.,0.));
#417=DIRECTION('',(-1.,0.,0.));
#418=DIRECTION('',(0.,-1.,0.));
#419=DIRECTION('',(-1.,0.,0.));
#420=DIRECTION('',(0.,1.,0.));
#421=DIRECTION('',(-1.,0.,0.));
#422=DIRECTION('',(0.,-1.,0.));
#423=DIRECTION('',(0.,0.,1.));
#424=DIRECTION('',(1.,0.,0.));
#425=DIRECTION('',(0.0348782627423732,0.0348782627423735,0.998782765958718));
#426=DIRECTION('',(-1.,0.,0.));
#427=DIRECTION('',(0.0348782627423736,-0.0348782627423735,-0.998782765958718));
#428=DIRECTION('',(0.,0.999390827019096,-0.0348994967024998));
#429=DIRECTION('',(0.,0.0348994967024998,0.999390827019096));
#430=DIRECTION('',(0.0348994967024999,0.,-0.999390827019096));
#431=DIRECTION('',(-1.,0.,0.));
#432=DIRECTION('',(0.,0.,1.));
#433=DIRECTION('',(0.,1.,0.));
#434=DIRECTION('',(0.,0.,1.));
#435=DIRECTION('',(0.,0.,-1.));
#436=DIRECTION('',(-1.,0.,0.));
#437=DIRECTION('',(-0.0348994967024999,0.,0.999390827019096));
#438=DIRECTION('',(0.,-1.,0.));
#439=DIRECTION('',(0.,0.,-1.));
#440=DIRECTION('',(-1.,0.,0.));
#441=DIRECTION('',(-0.0348782627423732,0.0348782627423735,-0.998782765958718));
#442=DIRECTION('',(-0.0348782627423736,-0.0348782627423735,0.998782765958718));
#443=DIRECTION('',(0.,-0.999390827019096,-0.0348994967024998));
#444=DIRECTION('',(0.,0.0348994967024998,-0.999390827019096));
#445=DIRECTION('',(0.,-1.,0.));
#446=DIRECTION('',(0.,-1.,0.));
#447=DIRECTION('',(0.999390827019096,0.,0.0348994967024999));
#448=DIRECTION('',(0.0348994967024999,0.,-0.999390827019096));
#449=DIRECTION('',(1.,0.,0.));
#450=DIRECTION('',(0.,0.034899496702501,0.999390827019096));
#451=DIRECTION('',(0.,-0.034899496702501,-0.999390827019096));
#452=DIRECTION('',(0.0348782627423732,-0.0348782627423746,-0.998782765958718));
#453=DIRECTION('',(0.0348782627423732,0.0348782627423746,0.998782765958718));
#454=DIRECTION('',(0.,-0.999390827019096,0.034899496702501));
#455=DIRECTION('',(0.,-0.034899496702501,-0.999390827019096));
#456=DIRECTION('',(0.,-0.034899496702501,0.999390827019096));
#457=DIRECTION('',(1.,0.,0.));
#458=DIRECTION('',(0.0348782627423732,-0.0348782627423746,0.998782765958718));
#459=DIRECTION('',(0.0348782627423732,0.0348782627423746,-0.998782765958718));
#460=DIRECTION('',(0.,0.034899496702501,-0.999390827019096));
#461=DIRECTION('',(0.,0.999390827019096,0.034899496702501));
#462=DIRECTION('',(0.,-0.034899496702501,0.999390827019096));
#463=DIRECTION('',(0.,-1.,0.));
#464=DIRECTION('',(1.,0.,0.));
#465=DIRECTION('',(0.,0.,-1.));
#466=DIRECTION('',(0.,1.,0.));
#467=DIRECTION('',(0.,1.,0.));
#468=DIRECTION('',(0.,0.,-1.));
#469=DIRECTION('',(-1.,0.,0.));
#470=DIRECTION('',(0.999390827019096,0.,-0.0348994967024996));
#471=DIRECTION('',(-0.0348994967024996,0.,-0.999390827019096));
#472=DIRECTION('',(-0.999390827019096,0.,-0.0348994967024996));
#473=DIRECTION('',(-0.0348994967024996,0.,0.999390827019096));
#474=DIRECTION('',(-1.,0.,0.));
#475=DIRECTION('',(0.,0.,1.));
#476=DIRECTION('',(1.,0.,0.));
#477=DIRECTION('',(0.,0.,-1.));
#478=DIRECTION('',(0.,1.,0.));
#479=DIRECTION('',(0.,0.,-1.));
#480=DIRECTION('',(-1.,0.,0.));
#481=DIRECTION('',(0.999390827019096,0.,-0.0348994967024996));
#482=DIRECTION('',(-0.0348994967024996,0.,-0.999390827019096));
#483=CARTESIAN_POINT('',(0.,0.,0.));
#484=CARTESIAN_POINT('',(-1.81563723525877,20.7275915870217,16.0009375542718));
#485=CARTESIAN_POINT('',(-1.81563723525876,-20.8109379080682,16.0009375542718));
#486=CARTESIAN_POINT('',(-1.81563723525876,20.7799727412593,16.0009375542718));
#487=CARTESIAN_POINT('',(-11.2834141181344,-20.8109379080682,16.0009375542718));
#488=CARTESIAN_POINT('',(-2.66801838949639,-20.8109379080682,16.0009375542718));
#489=CARTESIAN_POINT('',(-2.66801838949639,20.7275915870217,16.0009375542718));
#490=CARTESIAN_POINT('',(-2.66801838949639,20.7799727412593,16.0009375542718));
#491=CARTESIAN_POINT('',(-11.2834141181344,20.7799727412593,16.0009375542718));
#492=CARTESIAN_POINT('',(-20.6876963806714,20.7275915870217,16.0009375542718));
#493=CARTESIAN_POINT('',(-11.2834141181344,-21.3696702199362,0.000937554271777247));
#494=CARTESIAN_POINT('',(-1.25690492339082,-21.3696702199362,0.000937554271777247));
#495=CARTESIAN_POINT('',(1.24309507661362,-21.3696702199362,0.000937554271777247));
#496=CARTESIAN_POINT('',(-1.25690492339082,20.7275915870217,0.000937554271777247));
#497=CARTESIAN_POINT('',(-1.25690492339082,21.3387050531273,0.000937554271777247));
#498=CARTESIAN_POINT('',(-11.2834141181344,21.3387050531273,0.000937554271777247));
#499=CARTESIAN_POINT('',(1.24309507661362,21.3387050531273,0.000937554271777247));
#500=CARTESIAN_POINT('',(1.24309507661362,20.7275915870217,0.000937554271777247));
#501=CARTESIAN_POINT('',(1.24309507661363,1.21903483319155,0.000937554271777247));
#502=CARTESIAN_POINT('',(137.486798389157,1.21903483319155,0.000937554271777247));
#503=CARTESIAN_POINT('',(21.2430950766131,1.21903483319155,0.000937554271777247));
#504=CARTESIAN_POINT('',(21.2430950766132,0.929328200749012,0.000937554271777247));
#505=CARTESIAN_POINT('',(21.2430950766132,-1.28096516680889,0.000937554271777247));
#506=CARTESIAN_POINT('',(-23.4671982909443,-1.28096516680889,0.000937554271777247));
#507=CARTESIAN_POINT('',(1.24309507661366,-1.28096516680889,0.000937554271777247));
#508=CARTESIAN_POINT('',(1.24309507661362,20.7275915870217,0.000937554271777247));
#509=CARTESIAN_POINT('',(-23.4671982909443,20.7275915870217,0.000937554271777247));
#510=CARTESIAN_POINT('',(-11.2834141181344,20.7275915870217,17.5009375542718));
#511=CARTESIAN_POINT('',(2.65420854272361,20.7275915870217,17.5009375542718));
#512=CARTESIAN_POINT('',(-2.66801838949639,20.7275915870217,17.5009375542718));
#513=CARTESIAN_POINT('',(-2.66801838949639,20.7275915870217,17.5009375542718));
#514=CARTESIAN_POINT('',(-2.66801838949639,-20.7585567538306,17.5009375542718));
#515=CARTESIAN_POINT('',(-11.2834141181344,-20.7585567538306,17.5009375542718));
#516=CARTESIAN_POINT('',(2.65420854272361,-20.7585567538306,17.5009375542718));
#517=CARTESIAN_POINT('',(2.65420854272361,20.7275915870217,17.5009375542718));
#518=CARTESIAN_POINT('',(2.65420854272361,-2.69207863291489,17.5009375542718));
#519=CARTESIAN_POINT('',(137.486798389157,-2.69207863291489,17.5009375542718));
#520=CARTESIAN_POINT('',(20.6319816105076,-2.69207863291489,17.5009375542718));
#521=CARTESIAN_POINT('',(20.6319816105076,-0.941347179755784,17.5009375542718));
#522=CARTESIAN_POINT('',(20.6319816105076,2.63014829929711,17.5009375542718));
#523=CARTESIAN_POINT('',(137.486798389157,2.63014829929711,17.5009375542718));
#524=CARTESIAN_POINT('',(2.65420854272361,2.63014829929711,17.5009375542718));
#525=CARTESIAN_POINT('',(2.65420854272361,20.7275915870217,17.5009375542718));
#526=CARTESIAN_POINT('',(-21.5965229104394,20.7275915870217,17.5009375542718));
#527=CARTESIAN_POINT('',(1.27692541964741,1.25286517622532,0.969711826035006));
#528=CARTESIAN_POINT('',(1.8123036193291,1.78824337590702,16.3009375542718));
#529=CARTESIAN_POINT('',(137.486798389157,1.78824337590701,16.3009375542718));
#530=CARTESIAN_POINT('',(20.6738865338977,1.78824337590702,16.3009375542718));
#531=CARTESIAN_POINT('',(20.8159886482349,1.64614126156978,12.2316654160727));
#532=CARTESIAN_POINT('',(137.486798389157,1.78824337590701,16.3009375542718));
#533=CARTESIAN_POINT('',(20.7743078407927,2.63014829929711,13.4252475750247));
#534=CARTESIAN_POINT('',(20.6738865338977,2.63014829929711,16.3009375542718));
#535=CARTESIAN_POINT('',(137.486798389157,2.63014829929711,16.3009375542718));
#536=CARTESIAN_POINT('',(2.65420854272361,2.63014829929711,16.3009375542718));
#537=CARTESIAN_POINT('',(2.65420854272361,2.63014829929711,16.7252016229823));
#538=CARTESIAN_POINT('',(137.486798389157,2.63014829929711,17.5009375542718));
#539=CARTESIAN_POINT('',(2.65420854272361,-2.69207863291489,16.7252016229823));
#540=CARTESIAN_POINT('',(2.65420854272361,-2.69207863291489,16.3009375542718));
#541=CARTESIAN_POINT('',(-20.6876963806714,-2.69207863291489,16.3009375542718));
#542=CARTESIAN_POINT('',(20.6738865338977,-2.69207863291489,16.3009375542718));
#543=CARTESIAN_POINT('',(20.8013641423544,-2.69207863291489,12.6504564706058));
#544=CARTESIAN_POINT('',(137.486798389157,-2.69207863291489,16.7252016229827));
#545=CARTESIAN_POINT('',(-20.6876963806714,-1.85017370952436,16.3009375542718));
#546=CARTESIAN_POINT('',(20.6738865338977,-1.85017370952435,16.3009375542718));
#547=CARTESIAN_POINT('',(1.81230361932913,-1.85017370952436,16.3009375542718));
#548=CARTESIAN_POINT('',(1.22642013288661,-1.26429022308184,-0.476570357774517));
#549=CARTESIAN_POINT('',(21.3744064364537,-1.14965380696831,-3.75932780504721));
#550=CARTESIAN_POINT('',(137.486798389157,-1.29107578247249,0.2904677052608));
#551=CARTESIAN_POINT('',(20.6738865338977,20.7275915870217,16.3009375542718));
#552=CARTESIAN_POINT('',(20.6738865338977,20.7275915870217,16.3009375542718));
#553=CARTESIAN_POINT('',(20.6738865338977,-221.579891049464,16.3009375542718));
#554=CARTESIAN_POINT('',(-11.2834141181344,-20.8004616772207,16.3009375542718));
#555=CARTESIAN_POINT('',(1.81230361932908,-20.8004616772207,16.3009375542718));
#556=CARTESIAN_POINT('',(2.65420854272361,-20.8004616772207,16.3009375542718));
#557=CARTESIAN_POINT('',(2.65420854272361,-20.7585567538306,17.5009375542718));
#558=CARTESIAN_POINT('',(-2.66801838949639,-20.7585567538306,17.5009375542718));
#559=CARTESIAN_POINT('',(-1.87947215448787,-20.7471029888391,17.828930469611));
#560=CARTESIAN_POINT('',(1.83822671393141,-20.7745385826184,17.0432778571809));
#561=CARTESIAN_POINT('',(-11.2834141181344,-20.7585567538306,17.5009375542718));
#562=CARTESIAN_POINT('',(2.65420854272361,20.7275915870217,17.5009375542718));
#563=CARTESIAN_POINT('',(2.65420854272361,20.7694965104118,16.3009375542718));
#564=CARTESIAN_POINT('',(-11.2834141181344,20.7694965104118,16.3009375542718));
#565=CARTESIAN_POINT('',(1.81230361932908,20.7694965104118,16.3009375542718));
#566=CARTESIAN_POINT('',(1.83822671393141,20.7435734158095,17.0432778571809));
#567=CARTESIAN_POINT('',(-1.87947215448787,20.7161378220302,17.828930469611));
#568=CARTESIAN_POINT('',(-2.66801838949639,20.7275915870217,17.5009375542718));
#569=CARTESIAN_POINT('',(-11.2834141181344,20.7275915870217,17.5009375542718));
#570=CARTESIAN_POINT('',(2.65420854272361,20.7275915870217,16.3009375542718));
#571=CARTESIAN_POINT('',(2.65420854272361,20.7275915870217,16.7252016229823));
#572=CARTESIAN_POINT('',(2.65420854272361,20.7275915870217,16.3009375542718));
#573=CARTESIAN_POINT('',(1.81230361932908,20.7275915870217,16.3009375542718));
#574=CARTESIAN_POINT('',(-20.6876963806714,20.7275915870217,16.3009375542718));
#575=CARTESIAN_POINT('',(1.25320569227721,20.7275915870217,0.290467705260655));
#576=CARTESIAN_POINT('',(-1.82611346610629,20.7275915870217,16.3009375542718));
#577=CARTESIAN_POINT('',(-2.66801838949639,20.7275915870217,17.5009375542718));
#578=CARTESIAN_POINT('',(2.65420854272361,20.7275915870217,16.7252016229823));
#579=CARTESIAN_POINT('',(1.81230361932908,20.7275915870217,16.3009375542718));
#580=CARTESIAN_POINT('',(-20.6876963806714,20.7275915870217,16.3009375542718));
#581=CARTESIAN_POINT('',(1.25320569227721,20.7275915870217,0.290467705260655));
#582=MECHANICAL_DESIGN_GEOMETRIC_PRESENTATION_REPRESENTATION('',(#24),#583);
#583=(
GEOMETRIC_REPRESENTATION_CONTEXT(3)
GLOBAL_UNCERTAINTY_ASSIGNED_CONTEXT((#584))
GLOBAL_UNIT_ASSIGNED_CONTEXT((#590,#586,#585))
REPRESENTATION_CONTEXT('28517_4_KDS-Inlay-2','TOP_LEVEL_ASSEMBLY_PART')
);
#584=UNCERTAINTY_MEASURE_WITH_UNIT(LENGTH_MEASURE(2.E-5),#590,
'DISTANCE_ACCURACY_VALUE','Maximum Tolerance applied to model');
#585=(
NAMED_UNIT(*)
SI_UNIT($,.STERADIAN.)
SOLID_ANGLE_UNIT()
);
#586=(
CONVERSION_BASED_UNIT('DEGREE',#588)
NAMED_UNIT(#587)
PLANE_ANGLE_UNIT()
);
#587=DIMENSIONAL_EXPONENTS(0.,0.,0.,0.,0.,0.,0.);
#588=PLANE_ANGLE_MEASURE_WITH_UNIT(PLANE_ANGLE_MEASURE(0.0174532925),#589);
#589=(
NAMED_UNIT(*)
PLANE_ANGLE_UNIT()
SI_UNIT($,.RADIAN.)
);
#590=(
LENGTH_UNIT()
NAMED_UNIT(*)
SI_UNIT(.MILLI.,.METRE.)
);
ENDSEC;
END-ISO-10303-21;
