ISO-10303-21;
HEADER;
/* Generated by software containing ST-Developer
 * from STEP Tools, Inc. (www.steptools.com) 
 */
/* OPTION: using custom schema-name function */

FILE_DESCRIPTION(
/* description */ (''),
/* implementation_level */ '2;1');

FILE_NAME(
/* name */ '28762_6_KDS-DE_4x6.stp',
/* time_stamp */ '2019-05-21T07:18:52+02:00',
/* author */ (''),
/* organization */ (''),
/* preprocessor_version */ 'ST-DEVELOPER v16.7',
/* originating_system */ 'SIEMENS PLM Software NX 12.0',
/* authorisation */ '');

FILE_SCHEMA (('AUTOMOTIVE_DESIGN { 1 0 10303 214 3 1 1 1 }'));
ENDSEC;

DATA;
#10=PROPERTY_DEFINITION_REPRESENTATION(#14,#12);
#11=PROPERTY_DEFINITION_REPRESENTATION(#15,#13);
#12=REPRESENTATION('',(#16),#553);
#13=REPRESENTATION('',(#17),#553);
#14=PROPERTY_DEFINITION('pmi validation property','',#21);
#15=PROPERTY_DEFINITION('pmi validation property','',#21);
#16=VALUE_REPRESENTATION_ITEM('number of annotations',COUNT_MEASURE(0.));
#17=VALUE_REPRESENTATION_ITEM('number of views',COUNT_MEASURE(0.));
#18=SHAPE_REPRESENTATION_RELATIONSHIP('None',
'relationship between 28762_6_KDS-DE_4x6-None and 28762_6_KDS-DE_4x6-None',
#30,#19);
#19=ADVANCED_BREP_SHAPE_REPRESENTATION('28762_6_KDS-DE_4x6-None',(#40),#553);
#20=SHAPE_DEFINITION_REPRESENTATION(#21,#30);
#21=PRODUCT_DEFINITION_SHAPE('','',#22);
#22=PRODUCT_DEFINITION(' ','',#24,#23);
#23=PRODUCT_DEFINITION_CONTEXT('part definition',#29,'design');
#24=PRODUCT_DEFINITION_FORMATION_WITH_SPECIFIED_SOURCE(' ',' ',#26,
 .NOT_KNOWN.);
#25=PRODUCT_RELATED_PRODUCT_CATEGORY('part','',(#26));
#26=PRODUCT('28762_6_KDS-DE_4x6','28762_6_KDS-DE_4x6',' ',(#27));
#27=PRODUCT_CONTEXT(' ',#29,'mechanical');
#28=APPLICATION_PROTOCOL_DEFINITION('international standard',
'automotive_design',2010,#29);
#29=APPLICATION_CONTEXT(
'core data for automotive mechanical design processes');
#30=SHAPE_REPRESENTATION('28762_6_KDS-DE_4x6-None',(#348),#553);
#31=PRESENTATION_LAYER_ASSIGNMENT('1','Layer 1',(#40));
#32=STYLED_ITEM('',(#33),#40);
#33=PRESENTATION_STYLE_ASSIGNMENT((#34));
#34=SURFACE_STYLE_USAGE(.BOTH.,#35);
#35=SURFACE_SIDE_STYLE('',(#36));
#36=SURFACE_STYLE_FILL_AREA(#37);
#37=FILL_AREA_STYLE('',(#38));
#38=FILL_AREA_STYLE_COLOUR('',#39);
#39=COLOUR_RGB('Medium Steel',0.596063172350652,0.666666666666667,0.686259250782025);
#40=MANIFOLD_SOLID_BREP('',#41);
#41=CLOSED_SHELL('',(#70,#71,#72,#73,#74,#75,#76,#77,#78,#79,#80,#81,#82,
#83,#84,#85,#86,#87,#88));
#42=CYLINDRICAL_SURFACE('',#371,1.75);
#43=CYLINDRICAL_SURFACE('',#374,1.75);
#44=CYLINDRICAL_SURFACE('',#376,3.055);
#45=CYLINDRICAL_SURFACE('',#377,3.055);
#46=CYLINDRICAL_SURFACE('',#378,3.055);
#47=CYLINDRICAL_SURFACE('',#379,3.055);
#48=FACE_OUTER_BOUND('',#142,.T.);
#49=FACE_OUTER_BOUND('',#143,.T.);
#50=FACE_OUTER_BOUND('',#144,.T.);
#51=FACE_OUTER_BOUND('',#145,.T.);
#52=FACE_OUTER_BOUND('',#146,.T.);
#53=FACE_OUTER_BOUND('',#147,.T.);
#54=FACE_OUTER_BOUND('',#148,.T.);
#55=FACE_OUTER_BOUND('',#149,.T.);
#56=FACE_OUTER_BOUND('',#152,.T.);
#57=FACE_OUTER_BOUND('',#155,.T.);
#58=CIRCLE('',#350,3.055);
#59=CIRCLE('',#351,3.055);
#60=CIRCLE('',#352,3.055);
#61=CIRCLE('',#353,3.055);
#62=CIRCLE('',#355,3.055);
#63=CIRCLE('',#356,3.055);
#64=CIRCLE('',#357,3.055);
#65=CIRCLE('',#358,3.055);
#66=CIRCLE('',#359,1.75);
#67=CIRCLE('',#360,1.75);
#68=CIRCLE('',#370,1.75);
#69=CIRCLE('',#373,1.75);
#70=ADVANCED_FACE('',(#102,#103),#89,.T.);
#71=ADVANCED_FACE('',(#104,#105,#106,#107,#108),#90,.T.);
#72=ADVANCED_FACE('',(#109,#110,#111,#112,#113,#114,#115),#91,.T.);
#73=ADVANCED_FACE('',(#48),#92,.T.);
#74=ADVANCED_FACE('',(#49),#93,.T.);
#75=ADVANCED_FACE('',(#50),#94,.T.);
#76=ADVANCED_FACE('',(#51),#95,.T.);
#77=ADVANCED_FACE('',(#52),#96,.F.);
#78=ADVANCED_FACE('',(#53),#97,.F.);
#79=ADVANCED_FACE('',(#54),#98,.F.);
#80=ADVANCED_FACE('',(#55),#99,.F.);
#81=ADVANCED_FACE('',(#116,#117),#42,.F.);
#82=ADVANCED_FACE('',(#56),#100,.T.);
#83=ADVANCED_FACE('',(#118,#119),#43,.F.);
#84=ADVANCED_FACE('',(#57),#101,.T.);
#85=ADVANCED_FACE('',(#120,#121),#44,.F.);
#86=ADVANCED_FACE('',(#122,#123),#45,.F.);
#87=ADVANCED_FACE('',(#124,#125),#46,.F.);
#88=ADVANCED_FACE('',(#126,#127),#47,.F.);
#89=PLANE('',#349);
#90=PLANE('',#354);
#91=PLANE('',#361);
#92=PLANE('',#362);
#93=PLANE('',#363);
#94=PLANE('',#364);
#95=PLANE('',#365);
#96=PLANE('',#366);
#97=PLANE('',#367);
#98=PLANE('',#368);
#99=PLANE('',#369);
#100=PLANE('',#372);
#101=PLANE('',#375);
#102=FACE_BOUND('',#128,.T.);
#103=FACE_BOUND('',#129,.T.);
#104=FACE_BOUND('',#130,.T.);
#105=FACE_BOUND('',#131,.T.);
#106=FACE_BOUND('',#132,.T.);
#107=FACE_BOUND('',#133,.T.);
#108=FACE_BOUND('',#134,.T.);
#109=FACE_BOUND('',#135,.T.);
#110=FACE_BOUND('',#136,.T.);
#111=FACE_BOUND('',#137,.T.);
#112=FACE_BOUND('',#138,.T.);
#113=FACE_BOUND('',#139,.T.);
#114=FACE_BOUND('',#140,.T.);
#115=FACE_BOUND('',#141,.T.);
#116=FACE_BOUND('',#150,.T.);
#117=FACE_BOUND('',#151,.T.);
#118=FACE_BOUND('',#153,.T.);
#119=FACE_BOUND('',#154,.T.);
#120=FACE_BOUND('',#156,.T.);
#121=FACE_BOUND('',#157,.T.);
#122=FACE_BOUND('',#158,.T.);
#123=FACE_BOUND('',#159,.T.);
#124=FACE_BOUND('',#160,.T.);
#125=FACE_BOUND('',#161,.T.);
#126=FACE_BOUND('',#162,.T.);
#127=FACE_BOUND('',#163,.T.);
#128=EDGE_LOOP('',(#164,#165,#166,#167));
#129=EDGE_LOOP('',(#168,#169,#170,#171));
#130=EDGE_LOOP('',(#172));
#131=EDGE_LOOP('',(#173));
#132=EDGE_LOOP('',(#174,#175,#176,#177));
#133=EDGE_LOOP('',(#178));
#134=EDGE_LOOP('',(#179));
#135=EDGE_LOOP('',(#180));
#136=EDGE_LOOP('',(#181));
#137=EDGE_LOOP('',(#182));
#138=EDGE_LOOP('',(#183));
#139=EDGE_LOOP('',(#184));
#140=EDGE_LOOP('',(#185));
#141=EDGE_LOOP('',(#186,#187,#188,#189));
#142=EDGE_LOOP('',(#190,#191,#192,#193));
#143=EDGE_LOOP('',(#194,#195,#196,#197));
#144=EDGE_LOOP('',(#198,#199,#200,#201));
#145=EDGE_LOOP('',(#202,#203,#204,#205));
#146=EDGE_LOOP('',(#206,#207,#208,#209));
#147=EDGE_LOOP('',(#210,#211,#212,#213));
#148=EDGE_LOOP('',(#214,#215,#216,#217));
#149=EDGE_LOOP('',(#218,#219,#220,#221));
#150=EDGE_LOOP('',(#222));
#151=EDGE_LOOP('',(#223));
#152=EDGE_LOOP('',(#224));
#153=EDGE_LOOP('',(#225));
#154=EDGE_LOOP('',(#226));
#155=EDGE_LOOP('',(#227));
#156=EDGE_LOOP('',(#228));
#157=EDGE_LOOP('',(#229));
#158=EDGE_LOOP('',(#230));
#159=EDGE_LOOP('',(#231));
#160=EDGE_LOOP('',(#232));
#161=EDGE_LOOP('',(#233));
#162=EDGE_LOOP('',(#234));
#163=EDGE_LOOP('',(#235));
#164=ORIENTED_EDGE('',*,*,#264,.F.);
#165=ORIENTED_EDGE('',*,*,#265,.T.);
#166=ORIENTED_EDGE('',*,*,#266,.T.);
#167=ORIENTED_EDGE('',*,*,#267,.F.);
#168=ORIENTED_EDGE('',*,*,#268,.F.);
#169=ORIENTED_EDGE('',*,*,#269,.T.);
#170=ORIENTED_EDGE('',*,*,#270,.F.);
#171=ORIENTED_EDGE('',*,*,#271,.T.);
#172=ORIENTED_EDGE('',*,*,#272,.T.);
#173=ORIENTED_EDGE('',*,*,#273,.T.);
#174=ORIENTED_EDGE('',*,*,#274,.F.);
#175=ORIENTED_EDGE('',*,*,#275,.F.);
#176=ORIENTED_EDGE('',*,*,#276,.T.);
#177=ORIENTED_EDGE('',*,*,#277,.T.);
#178=ORIENTED_EDGE('',*,*,#278,.T.);
#179=ORIENTED_EDGE('',*,*,#279,.T.);
#180=ORIENTED_EDGE('',*,*,#280,.F.);
#181=ORIENTED_EDGE('',*,*,#281,.F.);
#182=ORIENTED_EDGE('',*,*,#282,.F.);
#183=ORIENTED_EDGE('',*,*,#283,.F.);
#184=ORIENTED_EDGE('',*,*,#284,.F.);
#185=ORIENTED_EDGE('',*,*,#285,.F.);
#186=ORIENTED_EDGE('',*,*,#286,.F.);
#187=ORIENTED_EDGE('',*,*,#287,.T.);
#188=ORIENTED_EDGE('',*,*,#288,.T.);
#189=ORIENTED_EDGE('',*,*,#289,.F.);
#190=ORIENTED_EDGE('',*,*,#271,.F.);
#191=ORIENTED_EDGE('',*,*,#290,.F.);
#192=ORIENTED_EDGE('',*,*,#287,.F.);
#193=ORIENTED_EDGE('',*,*,#291,.F.);
#194=ORIENTED_EDGE('',*,*,#292,.F.);
#195=ORIENTED_EDGE('',*,*,#275,.T.);
#196=ORIENTED_EDGE('',*,*,#293,.F.);
#197=ORIENTED_EDGE('',*,*,#265,.F.);
#198=ORIENTED_EDGE('',*,*,#294,.F.);
#199=ORIENTED_EDGE('',*,*,#267,.T.);
#200=ORIENTED_EDGE('',*,*,#295,.F.);
#201=ORIENTED_EDGE('',*,*,#277,.F.);
#202=ORIENTED_EDGE('',*,*,#269,.F.);
#203=ORIENTED_EDGE('',*,*,#296,.F.);
#204=ORIENTED_EDGE('',*,*,#289,.T.);
#205=ORIENTED_EDGE('',*,*,#297,.F.);
#206=ORIENTED_EDGE('',*,*,#276,.F.);
#207=ORIENTED_EDGE('',*,*,#292,.T.);
#208=ORIENTED_EDGE('',*,*,#264,.T.);
#209=ORIENTED_EDGE('',*,*,#294,.T.);
#210=ORIENTED_EDGE('',*,*,#296,.T.);
#211=ORIENTED_EDGE('',*,*,#268,.T.);
#212=ORIENTED_EDGE('',*,*,#291,.T.);
#213=ORIENTED_EDGE('',*,*,#286,.T.);
#214=ORIENTED_EDGE('',*,*,#290,.T.);
#215=ORIENTED_EDGE('',*,*,#270,.T.);
#216=ORIENTED_EDGE('',*,*,#297,.T.);
#217=ORIENTED_EDGE('',*,*,#288,.F.);
#218=ORIENTED_EDGE('',*,*,#266,.F.);
#219=ORIENTED_EDGE('',*,*,#293,.T.);
#220=ORIENTED_EDGE('',*,*,#274,.T.);
#221=ORIENTED_EDGE('',*,*,#295,.T.);
#222=ORIENTED_EDGE('',*,*,#298,.T.);
#223=ORIENTED_EDGE('',*,*,#285,.T.);
#224=ORIENTED_EDGE('',*,*,#298,.F.);
#225=ORIENTED_EDGE('',*,*,#299,.T.);
#226=ORIENTED_EDGE('',*,*,#284,.T.);
#227=ORIENTED_EDGE('',*,*,#299,.F.);
#228=ORIENTED_EDGE('',*,*,#273,.F.);
#229=ORIENTED_EDGE('',*,*,#282,.T.);
#230=ORIENTED_EDGE('',*,*,#278,.F.);
#231=ORIENTED_EDGE('',*,*,#281,.T.);
#232=ORIENTED_EDGE('',*,*,#272,.F.);
#233=ORIENTED_EDGE('',*,*,#283,.T.);
#234=ORIENTED_EDGE('',*,*,#279,.F.);
#235=ORIENTED_EDGE('',*,*,#280,.T.);
#236=VERTEX_POINT('',#470);
#237=VERTEX_POINT('',#471);
#238=VERTEX_POINT('',#473);
#239=VERTEX_POINT('',#475);
#240=VERTEX_POINT('',#478);
#241=VERTEX_POINT('',#479);
#242=VERTEX_POINT('',#481);
#243=VERTEX_POINT('',#483);
#244=VERTEX_POINT('',#487);
#245=VERTEX_POINT('',#489);
#246=VERTEX_POINT('',#491);
#247=VERTEX_POINT('',#492);
#248=VERTEX_POINT('',#494);
#249=VERTEX_POINT('',#496);
#250=VERTEX_POINT('',#499);
#251=VERTEX_POINT('',#501);
#252=VERTEX_POINT('',#504);
#253=VERTEX_POINT('',#506);
#254=VERTEX_POINT('',#508);
#255=VERTEX_POINT('',#510);
#256=VERTEX_POINT('',#512);
#257=VERTEX_POINT('',#514);
#258=VERTEX_POINT('',#516);
#259=VERTEX_POINT('',#517);
#260=VERTEX_POINT('',#519);
#261=VERTEX_POINT('',#521);
#262=VERTEX_POINT('',#541);
#263=VERTEX_POINT('',#545);
#264=EDGE_CURVE('',#236,#237,#300,.T.);
#265=EDGE_CURVE('',#236,#238,#301,.T.);
#266=EDGE_CURVE('',#238,#239,#302,.T.);
#267=EDGE_CURVE('',#237,#239,#303,.T.);
#268=EDGE_CURVE('',#240,#241,#304,.T.);
#269=EDGE_CURVE('',#240,#242,#305,.T.);
#270=EDGE_CURVE('',#243,#242,#306,.T.);
#271=EDGE_CURVE('',#243,#241,#307,.T.);
#272=EDGE_CURVE('',#244,#244,#58,.T.);
#273=EDGE_CURVE('',#245,#245,#59,.T.);
#274=EDGE_CURVE('',#246,#247,#308,.T.);
#275=EDGE_CURVE('',#248,#246,#309,.T.);
#276=EDGE_CURVE('',#248,#249,#310,.T.);
#277=EDGE_CURVE('',#249,#247,#311,.T.);
#278=EDGE_CURVE('',#250,#250,#60,.T.);
#279=EDGE_CURVE('',#251,#251,#61,.T.);
#280=EDGE_CURVE('',#252,#252,#62,.T.);
#281=EDGE_CURVE('',#253,#253,#63,.T.);
#282=EDGE_CURVE('',#254,#254,#64,.T.);
#283=EDGE_CURVE('',#255,#255,#65,.T.);
#284=EDGE_CURVE('',#256,#256,#66,.T.);
#285=EDGE_CURVE('',#257,#257,#67,.T.);
#286=EDGE_CURVE('',#258,#259,#312,.T.);
#287=EDGE_CURVE('',#258,#260,#313,.T.);
#288=EDGE_CURVE('',#260,#261,#314,.T.);
#289=EDGE_CURVE('',#259,#261,#315,.T.);
#290=EDGE_CURVE('',#260,#243,#316,.T.);
#291=EDGE_CURVE('',#241,#258,#317,.T.);
#292=EDGE_CURVE('',#248,#236,#318,.T.);
#293=EDGE_CURVE('',#238,#246,#319,.T.);
#294=EDGE_CURVE('',#237,#249,#320,.T.);
#295=EDGE_CURVE('',#247,#239,#321,.T.);
#296=EDGE_CURVE('',#259,#240,#322,.T.);
#297=EDGE_CURVE('',#242,#261,#323,.T.);
#298=EDGE_CURVE('',#262,#262,#68,.T.);
#299=EDGE_CURVE('',#263,#263,#69,.T.);
#300=LINE('',#469,#324);
#301=LINE('',#472,#325);
#302=LINE('',#474,#326);
#303=LINE('',#476,#327);
#304=LINE('',#477,#328);
#305=LINE('',#480,#329);
#306=LINE('',#482,#330);
#307=LINE('',#484,#331);
#308=LINE('',#490,#332);
#309=LINE('',#493,#333);
#310=LINE('',#495,#334);
#311=LINE('',#497,#335);
#312=LINE('',#515,#336);
#313=LINE('',#518,#337);
#314=LINE('',#520,#338);
#315=LINE('',#522,#339);
#316=LINE('',#524,#340);
#317=LINE('',#525,#341);
#318=LINE('',#527,#342);
#319=LINE('',#528,#343);
#320=LINE('',#530,#344);
#321=LINE('',#531,#345);
#322=LINE('',#533,#346);
#323=LINE('',#534,#347);
#324=VECTOR('',#382,1.);
#325=VECTOR('',#383,1.);
#326=VECTOR('',#384,1.);
#327=VECTOR('',#385,1.);
#328=VECTOR('',#386,1.);
#329=VECTOR('',#387,1.);
#330=VECTOR('',#388,1.);
#331=VECTOR('',#389,1.);
#332=VECTOR('',#396,1.);
#333=VECTOR('',#397,1.);
#334=VECTOR('',#398,1.);
#335=VECTOR('',#399,1.);
#336=VECTOR('',#418,1.);
#337=VECTOR('',#419,1.);
#338=VECTOR('',#420,1.);
#339=VECTOR('',#421,1.);
#340=VECTOR('',#424,1.);
#341=VECTOR('',#425,1.);
#342=VECTOR('',#428,1.);
#343=VECTOR('',#429,1.);
#344=VECTOR('',#432,1.);
#345=VECTOR('',#433,1.);
#346=VECTOR('',#436,1.);
#347=VECTOR('',#437,1.);
#348=AXIS2_PLACEMENT_3D('',#468,#380,#381);
#349=AXIS2_PLACEMENT_3D('',#485,#390,#391);
#350=AXIS2_PLACEMENT_3D('',#486,#392,#393);
#351=AXIS2_PLACEMENT_3D('',#488,#394,#395);
#352=AXIS2_PLACEMENT_3D('',#498,#400,#401);
#353=AXIS2_PLACEMENT_3D('',#500,#402,#403);
#354=AXIS2_PLACEMENT_3D('',#502,#404,#405);
#355=AXIS2_PLACEMENT_3D('',#503,#406,#407);
#356=AXIS2_PLACEMENT_3D('',#505,#408,#409);
#357=AXIS2_PLACEMENT_3D('',#507,#410,#411);
#358=AXIS2_PLACEMENT_3D('',#509,#412,#413);
#359=AXIS2_PLACEMENT_3D('',#511,#414,#415);
#360=AXIS2_PLACEMENT_3D('',#513,#416,#417);
#361=AXIS2_PLACEMENT_3D('',#523,#422,#423);
#362=AXIS2_PLACEMENT_3D('',#526,#426,#427);
#363=AXIS2_PLACEMENT_3D('',#529,#430,#431);
#364=AXIS2_PLACEMENT_3D('',#532,#434,#435);
#365=AXIS2_PLACEMENT_3D('',#535,#438,#439);
#366=AXIS2_PLACEMENT_3D('',#536,#440,#441);
#367=AXIS2_PLACEMENT_3D('',#537,#442,#443);
#368=AXIS2_PLACEMENT_3D('',#538,#444,#445);
#369=AXIS2_PLACEMENT_3D('',#539,#446,#447);
#370=AXIS2_PLACEMENT_3D('',#540,#448,#449);
#371=AXIS2_PLACEMENT_3D('',#542,#450,#451);
#372=AXIS2_PLACEMENT_3D('',#543,#452,#453);
#373=AXIS2_PLACEMENT_3D('',#544,#454,#455);
#374=AXIS2_PLACEMENT_3D('',#546,#456,#457);
#375=AXIS2_PLACEMENT_3D('',#547,#458,#459);
#376=AXIS2_PLACEMENT_3D('',#548,#460,#461);
#377=AXIS2_PLACEMENT_3D('',#549,#462,#463);
#378=AXIS2_PLACEMENT_3D('',#550,#464,#465);
#379=AXIS2_PLACEMENT_3D('',#551,#466,#467);
#380=DIRECTION('',(0.,0.,1.));
#381=DIRECTION('',(1.,0.,0.));
#382=DIRECTION('',(-1.,0.,0.));
#383=DIRECTION('',(0.,-1.,0.));
#384=DIRECTION('',(-1.,0.,0.));
#385=DIRECTION('',(0.,-1.,0.));
#386=DIRECTION('',(1.,0.,0.));
#387=DIRECTION('',(0.,-1.,0.));
#388=DIRECTION('',(-1.,0.,0.));
#389=DIRECTION('',(0.,1.,0.));
#390=DIRECTION('',(0.,0.,1.));
#391=DIRECTION('',(-1.,0.,0.));
#392=DIRECTION('',(0.,0.,-1.));
#393=DIRECTION('',(1.,0.,0.));
#394=DIRECTION('',(0.,0.,-1.));
#395=DIRECTION('',(1.,0.,0.));
#396=DIRECTION('',(-1.,0.,0.));
#397=DIRECTION('',(0.,-1.,0.));
#398=DIRECTION('',(-1.,0.,0.));
#399=DIRECTION('',(0.,-1.,0.));
#400=DIRECTION('',(0.,0.,-1.));
#401=DIRECTION('',(1.,0.,0.));
#402=DIRECTION('',(0.,0.,-1.));
#403=DIRECTION('',(1.,0.,0.));
#404=DIRECTION('',(0.,0.,1.));
#405=DIRECTION('',(-1.,0.,0.));
#406=DIRECTION('',(0.,0.,-1.));
#407=DIRECTION('',(-1.,0.,0.));
#408=DIRECTION('',(0.,0.,-1.));
#409=DIRECTION('',(-1.,0.,0.));
#410=DIRECTION('',(0.,0.,-1.));
#411=DIRECTION('',(-1.,0.,0.));
#412=DIRECTION('',(0.,0.,-1.));
#413=DIRECTION('',(-1.,0.,0.));
#414=DIRECTION('',(0.,0.,-1.));
#415=DIRECTION('',(-1.,0.,0.));
#416=DIRECTION('',(0.,0.,-1.));
#417=DIRECTION('',(-1.,0.,0.));
#418=DIRECTION('',(-1.,0.,0.));
#419=DIRECTION('',(0.,-1.,0.));
#420=DIRECTION('',(-1.,0.,0.));
#421=DIRECTION('',(0.,-1.,0.));
#422=DIRECTION('',(0.,0.,-1.));
#423=DIRECTION('',(1.,0.,0.));
#424=DIRECTION('',(-0.0348782627423735,0.034878262742374,0.998782765958718));
#425=DIRECTION('',(0.0348782627423736,0.0348782627423734,-0.998782765958718));
#426=DIRECTION('',(0.999390827019096,0.,0.0348994967024999));
#427=DIRECTION('',(-0.0348994967024999,0.,0.999390827019096));
#428=DIRECTION('',(0.,0.,-1.));
#429=DIRECTION('',(0.,0.,1.));
#430=DIRECTION('',(1.,0.,0.));
#431=DIRECTION('',(0.,0.,1.));
#432=DIRECTION('',(0.,0.,1.));
#433=DIRECTION('',(0.,0.,-1.));
#434=DIRECTION('',(-1.,0.,0.));
#435=DIRECTION('',(0.,0.,-1.));
#436=DIRECTION('',(0.034878262742374,-0.0348782627423739,0.998782765958718));
#437=DIRECTION('',(-0.034878262742374,-0.034878262742374,-0.998782765958718));
#438=DIRECTION('',(-0.999390827019096,0.,0.0348994967025004));
#439=DIRECTION('',(-0.0348994967025004,0.,-0.999390827019096));
#440=DIRECTION('',(0.,-1.,0.));
#441=DIRECTION('',(0.,0.,1.));
#442=DIRECTION('',(0.,-0.999390827019096,-0.0348994967024997));
#443=DIRECTION('',(0.,-0.0348994967024997,0.999390827019096));
#444=DIRECTION('',(0.,0.999390827019096,-0.0348994967025004));
#445=DIRECTION('',(0.,-0.0348994967025004,-0.999390827019096));
#446=DIRECTION('',(0.,1.,0.));
#447=DIRECTION('',(0.,0.,-1.));
#448=DIRECTION('',(0.,0.,1.));
#449=DIRECTION('',(-1.,0.,0.));
#450=DIRECTION('',(0.,0.,-1.));
#451=DIRECTION('',(-1.,0.,0.));
#452=DIRECTION('',(0.,0.,-1.));
#453=DIRECTION('',(-1.,0.,0.));
#454=DIRECTION('',(0.,0.,1.));
#455=DIRECTION('',(-1.,0.,0.));
#456=DIRECTION('',(0.,0.,-1.));
#457=DIRECTION('',(-1.,0.,0.));
#458=DIRECTION('',(0.,0.,-1.));
#459=DIRECTION('',(-1.,0.,0.));
#460=DIRECTION('',(0.,0.,-1.));
#461=DIRECTION('',(-1.,0.,0.));
#462=DIRECTION('',(0.,0.,-1.));
#463=DIRECTION('',(-1.,0.,0.));
#464=DIRECTION('',(0.,0.,-1.));
#465=DIRECTION('',(-1.,0.,0.));
#466=DIRECTION('',(0.,0.,-1.));
#467=DIRECTION('',(-1.,0.,0.));
#468=CARTESIAN_POINT('',(0.,0.,0.));
#469=CARTESIAN_POINT('',(11.,8.55,16.3));
#470=CARTESIAN_POINT('',(8.55,8.55,16.3));
#471=CARTESIAN_POINT('',(-8.55,8.55,16.3));
#472=CARTESIAN_POINT('',(8.55,11.,16.3));
#473=CARTESIAN_POINT('',(8.55,-8.55,16.3));
#474=CARTESIAN_POINT('',(-8.899999999999,-8.55,16.3));
#475=CARTESIAN_POINT('',(-8.55,-8.55,16.3));
#476=CARTESIAN_POINT('',(-8.55,11.,16.3));
#477=CARTESIAN_POINT('',(-8.899999999999,9.28073050285465,16.3));
#478=CARTESIAN_POINT('',(-9.28073050285464,9.28073050285464,16.3));
#479=CARTESIAN_POINT('',(9.28073050285465,9.28073050285465,16.3));
#480=CARTESIAN_POINT('',(-9.28073050285464,11.,16.3));
#481=CARTESIAN_POINT('',(-9.28073050285464,-9.28073050285464,16.3));
#482=CARTESIAN_POINT('',(-8.899999999999,-9.28073050285463,16.3));
#483=CARTESIAN_POINT('',(9.28073050285465,-9.28073050285463,16.3));
#484=CARTESIAN_POINT('',(9.28073050285465,11.,16.3));
#485=CARTESIAN_POINT('',(-8.899999999999,11.,16.3));
#486=CARTESIAN_POINT('',(4.,-4.,17.5));
#487=CARTESIAN_POINT('',(7.055,-4.,17.5));
#488=CARTESIAN_POINT('',(-4.,-4.,17.5));
#489=CARTESIAN_POINT('',(-0.945000000000001,-4.,17.5));
#490=CARTESIAN_POINT('',(11.,-8.55,17.5));
#491=CARTESIAN_POINT('',(8.55,-8.55,17.5));
#492=CARTESIAN_POINT('',(-8.55,-8.55,17.5));
#493=CARTESIAN_POINT('',(8.55,11.,17.5));
#494=CARTESIAN_POINT('',(8.55,8.55,17.5));
#495=CARTESIAN_POINT('',(11.,8.55,17.5));
#496=CARTESIAN_POINT('',(-8.55,8.55,17.5));
#497=CARTESIAN_POINT('',(-8.55,11.,17.5));
#498=CARTESIAN_POINT('',(-4.,4.,17.5));
#499=CARTESIAN_POINT('',(-0.945000000000001,4.,17.5));
#500=CARTESIAN_POINT('',(4.,4.,17.5));
#501=CARTESIAN_POINT('',(7.055,4.,17.5));
#502=CARTESIAN_POINT('',(8.75,11.,17.5));
#503=CARTESIAN_POINT('',(4.,4.,-0.2));
#504=CARTESIAN_POINT('',(0.945000000000001,4.,-0.2));
#505=CARTESIAN_POINT('',(-4.,4.,-0.2));
#506=CARTESIAN_POINT('',(-7.055,4.,-0.2));
#507=CARTESIAN_POINT('',(-4.,-4.,-0.2));
#508=CARTESIAN_POINT('',(-7.055,-4.,-0.2));
#509=CARTESIAN_POINT('',(4.,-4.,-0.2));
#510=CARTESIAN_POINT('',(0.945000000000001,-4.,-0.2));
#511=CARTESIAN_POINT('',(7.7,0.,-0.199999999999999));
#512=CARTESIAN_POINT('',(5.95,0.,-0.199999999999999));
#513=CARTESIAN_POINT('',(-7.7,0.,-0.199999999999999));
#514=CARTESIAN_POINT('',(-9.45,0.,-0.199999999999999));
#515=CARTESIAN_POINT('',(-9.95698415389909,9.85692319946847,-0.2));
#516=CARTESIAN_POINT('',(9.85692319946847,9.85692319946847,-0.2));
#517=CARTESIAN_POINT('',(-9.85692319946846,9.85692319946847,-0.2));
#518=CARTESIAN_POINT('',(9.85692319946846,11.,-0.2));
#519=CARTESIAN_POINT('',(9.85692319946847,-9.85692319946846,-0.2));
#520=CARTESIAN_POINT('',(11.,-9.85692319946846,-0.2));
#521=CARTESIAN_POINT('',(-9.85692319946846,-9.85692319946846,-0.2));
#522=CARTESIAN_POINT('',(-9.85692319946846,11.,-0.2));
#523=CARTESIAN_POINT('',(-9.95698415389909,11.,-0.2));
#524=CARTESIAN_POINT('',(9.8316726174465,-9.83167261744649,0.523082062322285));
#525=CARTESIAN_POINT('',(9.85843546810887,9.85843546810887,-0.243305707818306));
#526=CARTESIAN_POINT('',(9.85704507119644,11.,-0.203489949670263));
#527=CARTESIAN_POINT('',(8.55,8.55,16.45));
#528=CARTESIAN_POINT('',(8.55,-8.55,16.45));
#529=CARTESIAN_POINT('',(8.55,11.,16.45));
#530=CARTESIAN_POINT('',(-8.55,8.55,17.5));
#531=CARTESIAN_POINT('',(-8.55,-8.55,17.5));
#532=CARTESIAN_POINT('',(-8.55,11.,17.5));
#533=CARTESIAN_POINT('',(-9.32293719547574,9.32293719547574,15.0913584598681));
#534=CARTESIAN_POINT('',(-9.29617434481336,-9.29617434481336,15.8577462300087));
#535=CARTESIAN_POINT('',(-9.32089457512427,11.,15.1498514536137));
#536=CARTESIAN_POINT('',(11.,8.55,16.45));
#537=CARTESIAN_POINT('',(11.,9.85704507119644,-0.203489949670276));
#538=CARTESIAN_POINT('',(11.,-9.73270252682922,3.35721464467161));
#539=CARTESIAN_POINT('',(11.,-8.55,17.5));
#540=CARTESIAN_POINT('',(-7.7,0.,0.100000000000001));
#541=CARTESIAN_POINT('',(-9.45,0.,0.100000000000001));
#542=CARTESIAN_POINT('',(-7.7,0.,0.100000000000001));
#543=CARTESIAN_POINT('',(-7.7,0.,0.100000000000001));
#544=CARTESIAN_POINT('',(7.7,0.,0.100000000000001));
#545=CARTESIAN_POINT('',(5.95,0.,0.100000000000001));
#546=CARTESIAN_POINT('',(7.7,0.,0.100000000000001));
#547=CARTESIAN_POINT('',(7.7,0.,0.100000000000001));
#548=CARTESIAN_POINT('',(-4.,-4.,-0.200000000000014));
#549=CARTESIAN_POINT('',(-4.,4.,-0.200000000000014));
#550=CARTESIAN_POINT('',(4.,-4.,-0.200000000000014));
#551=CARTESIAN_POINT('',(4.,4.,-0.200000000000014));
#552=MECHANICAL_DESIGN_GEOMETRIC_PRESENTATION_REPRESENTATION('',(#32),#553);
#553=(
GEOMETRIC_REPRESENTATION_CONTEXT(3)
GLOBAL_UNCERTAINTY_ASSIGNED_CONTEXT((#554))
GLOBAL_UNIT_ASSIGNED_CONTEXT((#560,#556,#555))
REPRESENTATION_CONTEXT('28762','TOP_LEVEL_ASSEMBLY_PART')
);
#554=UNCERTAINTY_MEASURE_WITH_UNIT(LENGTH_MEASURE(2.E-5),#560,
'DISTANCE_ACCURACY_VALUE','Maximum Tolerance applied to model');
#555=(
NAMED_UNIT(*)
SI_UNIT($,.STERADIAN.)
SOLID_ANGLE_UNIT()
);
#556=(
CONVERSION_BASED_UNIT('DEGREE',#558)
NAMED_UNIT(#557)
PLANE_ANGLE_UNIT()
);
#557=DIMENSIONAL_EXPONENTS(0.,0.,0.,0.,0.,0.,0.);
#558=PLANE_ANGLE_MEASURE_WITH_UNIT(PLANE_ANGLE_MEASURE(0.0174532925),#559);
#559=(
NAMED_UNIT(*)
PLANE_ANGLE_UNIT()
SI_UNIT($,.RADIAN.)
);
#560=(
LENGTH_UNIT()
NAMED_UNIT(*)
SI_UNIT(.MILLI.,.METRE.)
);
ENDSEC;
END-ISO-10303-21;
