ISO-10303-21;
HEADER;
FILE_DESCRIPTION((''),'2;1');
FILE_NAME('PRK6_3A_AP','2019-09-19T',('Christian Carl'),(''),
'CREO PARAMETRIC BY PTC INC, 2016380','CREO PARAMETRIC BY PTC INC, 2016380','');
FILE_SCHEMA(('CONFIG_CONTROL_DESIGN'));
ENDSEC;
DATA;
#2=CARTESIAN_POINT('',(0.E0,1.825E1,1.5E0));
#3=DIRECTION('',(0.E0,0.E0,1.E0));
#4=DIRECTION('',(0.E0,1.E0,0.E0));
#5=AXIS2_PLACEMENT_3D('',#2,#3,#4);
#7=CARTESIAN_POINT('',(0.E0,1.825E1,1.5E0));
#8=DIRECTION('',(0.E0,0.E0,1.E0));
#9=DIRECTION('',(0.E0,-1.E0,0.E0));
#10=AXIS2_PLACEMENT_3D('',#7,#8,#9);
#12=CARTESIAN_POINT('',(-2.855E1,8.E-1,1.5E0));
#13=DIRECTION('',(0.E0,0.E0,1.E0));
#14=DIRECTION('',(-1.E0,0.E0,0.E0));
#15=AXIS2_PLACEMENT_3D('',#12,#13,#14);
#17=DIRECTION('',(0.E0,1.E0,0.E0));
#18=VECTOR('',#17,2.375684941437E1);
#19=CARTESIAN_POINT('',(-2.885E1,8.E-1,1.5E0));
#20=LINE('',#19,#18);
#21=CARTESIAN_POINT('',(-2.855E1,2.455684941437E1,1.5E0));
#22=DIRECTION('',(0.E0,0.E0,-1.E0));
#23=DIRECTION('',(-1.E0,0.E0,0.E0));
#24=AXIS2_PLACEMENT_3D('',#21,#22,#23);
#26=DIRECTION('',(8.715574274766E-2,9.961946980917E-1,0.E0));
#27=VECTOR('',#26,1.118571561059E1);
#28=CARTESIAN_POINT('',(-2.884885840943E1,2.458299613719E1,1.5E0));
#29=LINE('',#28,#27);
#30=CARTESIAN_POINT('',(-2.757510064779E1,3.57E1,1.5E0));
#31=DIRECTION('',(0.E0,0.E0,1.E0));
#32=DIRECTION('',(-1.184237892934E-14,1.E0,0.E0));
#33=AXIS2_PLACEMENT_3D('',#30,#31,#32);
#35=DIRECTION('',(-1.E0,0.E0,0.E0));
#36=VECTOR('',#35,7.150020129559E1);
#37=CARTESIAN_POINT('',(4.392510064779E1,3.6E1,1.5E0));
#38=LINE('',#37,#36);
#39=CARTESIAN_POINT('',(4.392510064779E1,3.57E1,1.5E0));
#40=DIRECTION('',(0.E0,0.E0,1.E0));
#41=DIRECTION('',(9.961946980917E-1,8.715574274765E-2,0.E0));
#42=AXIS2_PLACEMENT_3D('',#39,#40,#41);
#44=DIRECTION('',(-8.715574274766E-2,9.961946980917E-1,0.E0));
#45=VECTOR('',#44,1.118571561059E1);
#46=CARTESIAN_POINT('',(4.519885840943E1,2.458299613719E1,1.5E0));
#47=LINE('',#46,#45);
#48=CARTESIAN_POINT('',(4.49E1,2.455684941437E1,1.5E0));
#49=DIRECTION('',(0.E0,0.E0,-1.E0));
#50=DIRECTION('',(9.961946980917E-1,8.715574274767E-2,0.E0));
#51=AXIS2_PLACEMENT_3D('',#48,#49,#50);
#53=DIRECTION('',(0.E0,1.E0,0.E0));
#54=VECTOR('',#53,2.375684941437E1);
#55=CARTESIAN_POINT('',(4.52E1,8.E-1,1.5E0));
#56=LINE('',#55,#54);
#57=CARTESIAN_POINT('',(4.49E1,8.E-1,1.5E0));
#58=DIRECTION('',(0.E0,0.E0,1.E0));
#59=DIRECTION('',(0.E0,-1.E0,0.E0));
#60=AXIS2_PLACEMENT_3D('',#57,#58,#59);
#62=DIRECTION('',(1.E0,0.E0,0.E0));
#63=VECTOR('',#62,7.345E1);
#64=CARTESIAN_POINT('',(-2.855E1,5.E-1,1.5E0));
#65=LINE('',#64,#63);
#66=CARTESIAN_POINT('',(0.E0,1.825E1,8.E-1));
#67=DIRECTION('',(0.E0,0.E0,1.E0));
#68=DIRECTION('',(0.E0,1.E0,0.E0));
#69=AXIS2_PLACEMENT_3D('',#66,#67,#68);
#71=DIRECTION('',(0.E0,-7.071067811865E-1,7.071067811865E-1));
#72=VECTOR('',#71,9.899494936612E-1);
#73=CARTESIAN_POINT('',(0.E0,1.675E1,8.E-1));
#74=LINE('',#73,#72);
#75=CARTESIAN_POINT('',(0.E0,1.825E1,8.E-1));
#76=DIRECTION('',(0.E0,0.E0,-1.E0));
#77=DIRECTION('',(0.E0,1.E0,0.E0));
#78=AXIS2_PLACEMENT_3D('',#75,#76,#77);
#80=DIRECTION('',(0.E0,7.071067811865E-1,7.071067811866E-1));
#81=VECTOR('',#80,9.899494936612E-1);
#82=CARTESIAN_POINT('',(0.E0,1.975E1,8.E-1));
#83=LINE('',#82,#81);
#84=CARTESIAN_POINT('',(-2.855E1,8.E-1,0.E0));
#85=DIRECTION('',(0.E0,0.E0,-1.E0));
#86=DIRECTION('',(0.E0,-1.E0,0.E0));
#87=AXIS2_PLACEMENT_3D('',#84,#85,#86);
#89=DIRECTION('',(1.E0,0.E0,0.E0));
#90=VECTOR('',#89,7.345E1);
#91=CARTESIAN_POINT('',(-2.855E1,5.E-1,0.E0));
#92=LINE('',#91,#90);
#93=CARTESIAN_POINT('',(4.49E1,8.E-1,0.E0));
#94=DIRECTION('',(0.E0,0.E0,-1.E0));
#95=DIRECTION('',(1.E0,0.E0,0.E0));
#96=AXIS2_PLACEMENT_3D('',#93,#94,#95);
#98=DIRECTION('',(0.E0,1.E0,0.E0));
#99=VECTOR('',#98,2.375684941437E1);
#100=CARTESIAN_POINT('',(4.52E1,8.E-1,0.E0));
#101=LINE('',#100,#99);
#102=CARTESIAN_POINT('',(4.49E1,2.455684941437E1,0.E0));
#103=DIRECTION('',(0.E0,0.E0,1.E0));
#104=DIRECTION('',(1.E0,1.184237892934E-14,0.E0));
#105=AXIS2_PLACEMENT_3D('',#102,#103,#104);
#107=DIRECTION('',(-8.715574274766E-2,9.961946980917E-1,0.E0));
#108=VECTOR('',#107,1.118571561059E1);
#109=CARTESIAN_POINT('',(4.519885840943E1,2.458299613719E1,0.E0));
#110=LINE('',#109,#108);
#111=CARTESIAN_POINT('',(4.392510064779E1,3.57E1,0.E0));
#112=DIRECTION('',(0.E0,0.E0,-1.E0));
#113=DIRECTION('',(0.E0,1.E0,0.E0));
#114=AXIS2_PLACEMENT_3D('',#111,#112,#113);
#116=DIRECTION('',(-1.E0,0.E0,0.E0));
#117=VECTOR('',#116,7.150020129559E1);
#118=CARTESIAN_POINT('',(4.392510064779E1,3.6E1,0.E0));
#119=LINE('',#118,#117);
#120=CARTESIAN_POINT('',(-2.757510064779E1,3.57E1,0.E0));
#121=DIRECTION('',(0.E0,0.E0,-1.E0));
#122=DIRECTION('',(-9.961946980917E-1,8.715574274765E-2,0.E0));
#123=AXIS2_PLACEMENT_3D('',#120,#121,#122);
#125=CARTESIAN_POINT('',(-2.855E1,2.455684941437E1,0.E0));
#126=DIRECTION('',(0.E0,0.E0,1.E0));
#127=DIRECTION('',(-9.961946980917E-1,8.715574274765E-2,0.E0));
#128=AXIS2_PLACEMENT_3D('',#125,#126,#127);
#130=DIRECTION('',(0.E0,0.E0,-1.E0));
#131=VECTOR('',#130,1.5E0);
#132=CARTESIAN_POINT('',(-2.855E1,5.E-1,1.5E0));
#133=LINE('',#132,#131);
#134=DIRECTION('',(0.E0,0.E0,-1.E0));
#135=VECTOR('',#134,1.5E0);
#136=CARTESIAN_POINT('',(4.49E1,5.E-1,1.5E0));
#137=LINE('',#136,#135);
#138=DIRECTION('',(0.E0,0.E0,-1.E0));
#139=VECTOR('',#138,1.5E0);
#140=CARTESIAN_POINT('',(4.52E1,2.455684941437E1,1.5E0));
#141=LINE('',#140,#139);
#142=DIRECTION('',(0.E0,0.E0,-1.E0));
#143=VECTOR('',#142,1.5E0);
#144=CARTESIAN_POINT('',(4.52E1,8.E-1,1.5E0));
#145=LINE('',#144,#143);
#146=DIRECTION('',(0.E0,0.E0,-1.E0));
#147=VECTOR('',#146,1.5E0);
#148=CARTESIAN_POINT('',(4.519885840943E1,2.458299613719E1,1.5E0));
#149=LINE('',#148,#147);
#150=DIRECTION('',(0.E0,0.E0,-1.E0));
#151=VECTOR('',#150,1.5E0);
#152=CARTESIAN_POINT('',(4.422395905722E1,3.572614672282E1,1.5E0));
#153=LINE('',#152,#151);
#154=DIRECTION('',(0.E0,0.E0,1.E0));
#155=VECTOR('',#154,1.5E0);
#156=CARTESIAN_POINT('',(-2.757510064779E1,3.6E1,0.E0));
#157=LINE('',#156,#155);
#158=DIRECTION('',(0.E0,0.E0,-1.E0));
#159=VECTOR('',#158,1.5E0);
#160=CARTESIAN_POINT('',(4.392510064779E1,3.6E1,1.5E0));
#161=LINE('',#160,#159);
#162=DIRECTION('',(0.E0,0.E0,-1.E0));
#163=VECTOR('',#162,1.5E0);
#164=CARTESIAN_POINT('',(-2.884885840943E1,2.458299613719E1,1.5E0));
#165=LINE('',#164,#163);
#166=DIRECTION('',(8.715574274766E-2,9.961946980917E-1,0.E0));
#167=VECTOR('',#166,1.118571561059E1);
#168=CARTESIAN_POINT('',(-2.884885840943E1,2.458299613719E1,0.E0));
#169=LINE('',#168,#167);
#170=DIRECTION('',(0.E0,0.E0,1.E0));
#171=VECTOR('',#170,1.5E0);
#172=CARTESIAN_POINT('',(-2.787395905722E1,3.572614672282E1,0.E0));
#173=LINE('',#172,#171);
#174=DIRECTION('',(0.E0,0.E0,-1.E0));
#175=VECTOR('',#174,1.5E0);
#176=CARTESIAN_POINT('',(-2.885E1,8.E-1,1.5E0));
#177=LINE('',#176,#175);
#178=DIRECTION('',(0.E0,1.E0,0.E0));
#179=VECTOR('',#178,2.375684941437E1);
#180=CARTESIAN_POINT('',(-2.885E1,8.E-1,0.E0));
#181=LINE('',#180,#179);
#182=DIRECTION('',(0.E0,0.E0,-1.E0));
#183=VECTOR('',#182,1.5E0);
#184=CARTESIAN_POINT('',(-2.885E1,2.455684941437E1,1.5E0));
#185=LINE('',#184,#183);
#186=CARTESIAN_POINT('',(4.519885840943E1,2.458299613719E1,1.5E0));
#187=CARTESIAN_POINT('',(4.519885840943E1,2.458299613719E1,0.E0));
#188=VERTEX_POINT('',#186);
#189=VERTEX_POINT('',#187);
#190=CARTESIAN_POINT('',(4.52E1,2.455684941437E1,0.E0));
#191=VERTEX_POINT('',#190);
#192=CARTESIAN_POINT('',(4.52E1,2.455684941437E1,1.5E0));
#193=VERTEX_POINT('',#192);
#194=CARTESIAN_POINT('',(4.392510064779E1,3.6E1,0.E0));
#195=CARTESIAN_POINT('',(4.422395905722E1,3.572614672282E1,0.E0));
#196=VERTEX_POINT('',#194);
#197=VERTEX_POINT('',#195);
#198=CARTESIAN_POINT('',(4.422395905722E1,3.572614672282E1,1.5E0));
#199=VERTEX_POINT('',#198);
#200=CARTESIAN_POINT('',(4.392510064779E1,3.6E1,1.5E0));
#201=VERTEX_POINT('',#200);
#202=CARTESIAN_POINT('',(4.52E1,8.E-1,0.E0));
#203=CARTESIAN_POINT('',(4.49E1,5.E-1,0.E0));
#204=VERTEX_POINT('',#202);
#205=VERTEX_POINT('',#203);
#206=CARTESIAN_POINT('',(4.49E1,5.E-1,1.5E0));
#207=VERTEX_POINT('',#206);
#208=CARTESIAN_POINT('',(4.52E1,8.E-1,1.5E0));
#209=VERTEX_POINT('',#208);
#210=CARTESIAN_POINT('',(-2.855E1,5.E-1,0.E0));
#211=CARTESIAN_POINT('',(-2.885E1,8.E-1,0.E0));
#212=VERTEX_POINT('',#210);
#213=VERTEX_POINT('',#211);
#214=CARTESIAN_POINT('',(-2.885E1,8.E-1,1.5E0));
#215=VERTEX_POINT('',#214);
#216=CARTESIAN_POINT('',(-2.855E1,5.E-1,1.5E0));
#217=VERTEX_POINT('',#216);
#218=CARTESIAN_POINT('',(-2.885E1,2.455684941437E1,1.5E0));
#219=CARTESIAN_POINT('',(-2.885E1,2.455684941437E1,0.E0));
#220=VERTEX_POINT('',#218);
#221=VERTEX_POINT('',#219);
#222=CARTESIAN_POINT('',(-2.884885840943E1,2.458299613719E1,0.E0));
#223=VERTEX_POINT('',#222);
#224=CARTESIAN_POINT('',(-2.884885840943E1,2.458299613719E1,1.5E0));
#225=VERTEX_POINT('',#224);
#226=CARTESIAN_POINT('',(-2.757510064779E1,3.6E1,1.5E0));
#227=CARTESIAN_POINT('',(-2.787395905722E1,3.572614672282E1,1.5E0));
#228=VERTEX_POINT('',#226);
#229=VERTEX_POINT('',#227);
#230=CARTESIAN_POINT('',(-2.787395905722E1,3.572614672282E1,0.E0));
#231=VERTEX_POINT('',#230);
#232=CARTESIAN_POINT('',(-2.757510064779E1,3.6E1,0.E0));
#233=VERTEX_POINT('',#232);
#234=CARTESIAN_POINT('',(0.E0,1.975E1,8.E-1));
#235=CARTESIAN_POINT('',(0.E0,1.675E1,8.E-1));
#236=VERTEX_POINT('',#234);
#237=VERTEX_POINT('',#235);
#238=CARTESIAN_POINT('',(0.E0,2.045E1,1.5E0));
#239=CARTESIAN_POINT('',(0.E0,1.605E1,1.5E0));
#240=VERTEX_POINT('',#238);
#241=VERTEX_POINT('',#239);
#242=CARTESIAN_POINT('',(0.E0,0.E0,1.5E0));
#243=DIRECTION('',(0.E0,0.E0,1.E0));
#244=DIRECTION('',(1.E0,0.E0,0.E0));
#245=AXIS2_PLACEMENT_3D('',#242,#243,#244);
#246=PLANE('',#245);
#248=ORIENTED_EDGE('',*,*,#247,.F.);
#250=ORIENTED_EDGE('',*,*,#249,.T.);
#252=ORIENTED_EDGE('',*,*,#251,.T.);
#254=ORIENTED_EDGE('',*,*,#253,.T.);
#256=ORIENTED_EDGE('',*,*,#255,.F.);
#258=ORIENTED_EDGE('',*,*,#257,.F.);
#260=ORIENTED_EDGE('',*,*,#259,.F.);
#262=ORIENTED_EDGE('',*,*,#261,.F.);
#264=ORIENTED_EDGE('',*,*,#263,.T.);
#266=ORIENTED_EDGE('',*,*,#265,.F.);
#268=ORIENTED_EDGE('',*,*,#267,.F.);
#270=ORIENTED_EDGE('',*,*,#269,.F.);
#271=EDGE_LOOP('',(#248,#250,#252,#254,#256,#258,#260,#262,#264,#266,#268,
#270));
#272=FACE_OUTER_BOUND('',#271,.F.);
#274=ORIENTED_EDGE('',*,*,#273,.T.);
#276=ORIENTED_EDGE('',*,*,#275,.T.);
#277=EDGE_LOOP('',(#274,#276));
#278=FACE_BOUND('',#277,.F.);
#279=ADVANCED_FACE('',(#272,#278),#246,.T.);
#280=CARTESIAN_POINT('',(0.E0,1.825E1,1.15E0));
#281=DIRECTION('',(0.E0,0.E0,1.E0));
#282=DIRECTION('',(0.E0,1.E0,0.E0));
#283=AXIS2_PLACEMENT_3D('',#280,#281,#282);
#284=CONICAL_SURFACE('',#283,1.85E0,4.5E1);
#285=ORIENTED_EDGE('',*,*,#273,.F.);
#287=ORIENTED_EDGE('',*,*,#286,.F.);
#289=ORIENTED_EDGE('',*,*,#288,.T.);
#291=ORIENTED_EDGE('',*,*,#290,.T.);
#292=EDGE_LOOP('',(#285,#287,#289,#291));
#293=FACE_OUTER_BOUND('',#292,.F.);
#294=ADVANCED_FACE('',(#293),#284,.F.);
#295=CARTESIAN_POINT('',(0.E0,1.825E1,1.15E0));
#296=DIRECTION('',(0.E0,0.E0,1.E0));
#297=DIRECTION('',(0.E0,1.E0,0.E0));
#298=AXIS2_PLACEMENT_3D('',#295,#296,#297);
#299=CONICAL_SURFACE('',#298,1.85E0,4.5E1);
#300=ORIENTED_EDGE('',*,*,#275,.F.);
#301=ORIENTED_EDGE('',*,*,#290,.F.);
#303=ORIENTED_EDGE('',*,*,#302,.F.);
#304=ORIENTED_EDGE('',*,*,#286,.T.);
#305=EDGE_LOOP('',(#300,#301,#303,#304));
#306=FACE_OUTER_BOUND('',#305,.F.);
#307=ADVANCED_FACE('',(#306),#299,.F.);
#308=CARTESIAN_POINT('',(0.E0,1.825E1,8.E-1));
#309=DIRECTION('',(0.E0,0.E0,1.E0));
#310=DIRECTION('',(0.E0,1.E0,0.E0));
#311=AXIS2_PLACEMENT_3D('',#308,#309,#310);
#312=PLANE('',#311);
#313=ORIENTED_EDGE('',*,*,#302,.T.);
#314=ORIENTED_EDGE('',*,*,#288,.F.);
#315=EDGE_LOOP('',(#313,#314));
#316=FACE_OUTER_BOUND('',#315,.F.);
#317=ADVANCED_FACE('',(#316),#312,.T.);
#318=CARTESIAN_POINT('',(-2.855E1,8.E-1,6.7144E0));
#319=DIRECTION('',(0.E0,0.E0,-1.E0));
#320=DIRECTION('',(0.E0,-1.E0,0.E0));
#321=AXIS2_PLACEMENT_3D('',#318,#319,#320);
#322=CYLINDRICAL_SURFACE('',#321,3.E-1);
#324=ORIENTED_EDGE('',*,*,#323,.T.);
#326=ORIENTED_EDGE('',*,*,#325,.F.);
#327=ORIENTED_EDGE('',*,*,#247,.T.);
#329=ORIENTED_EDGE('',*,*,#328,.T.);
#330=EDGE_LOOP('',(#324,#326,#327,#329));
#331=FACE_OUTER_BOUND('',#330,.F.);
#332=ADVANCED_FACE('',(#331),#322,.T.);
#333=CARTESIAN_POINT('',(0.E0,0.E0,0.E0));
#334=DIRECTION('',(0.E0,0.E0,1.E0));
#335=DIRECTION('',(1.E0,0.E0,0.E0));
#336=AXIS2_PLACEMENT_3D('',#333,#334,#335);
#337=PLANE('',#336);
#338=ORIENTED_EDGE('',*,*,#323,.F.);
#340=ORIENTED_EDGE('',*,*,#339,.T.);
#342=ORIENTED_EDGE('',*,*,#341,.F.);
#344=ORIENTED_EDGE('',*,*,#343,.T.);
#346=ORIENTED_EDGE('',*,*,#345,.T.);
#348=ORIENTED_EDGE('',*,*,#347,.T.);
#350=ORIENTED_EDGE('',*,*,#349,.F.);
#352=ORIENTED_EDGE('',*,*,#351,.T.);
#354=ORIENTED_EDGE('',*,*,#353,.F.);
#356=ORIENTED_EDGE('',*,*,#355,.F.);
#358=ORIENTED_EDGE('',*,*,#357,.T.);
#360=ORIENTED_EDGE('',*,*,#359,.F.);
#361=EDGE_LOOP('',(#338,#340,#342,#344,#346,#348,#350,#352,#354,#356,#358,
#360));
#362=FACE_OUTER_BOUND('',#361,.F.);
#363=ADVANCED_FACE('',(#362),#337,.F.);
#364=CARTESIAN_POINT('',(-4.52E1,5.E-1,0.E0));
#365=DIRECTION('',(0.E0,-1.E0,0.E0));
#366=DIRECTION('',(1.E0,0.E0,0.E0));
#367=AXIS2_PLACEMENT_3D('',#364,#365,#366);
#368=PLANE('',#367);
#369=ORIENTED_EDGE('',*,*,#328,.F.);
#370=ORIENTED_EDGE('',*,*,#269,.T.);
#372=ORIENTED_EDGE('',*,*,#371,.T.);
#373=ORIENTED_EDGE('',*,*,#339,.F.);
#374=EDGE_LOOP('',(#369,#370,#372,#373));
#375=FACE_OUTER_BOUND('',#374,.F.);
#376=ADVANCED_FACE('',(#375),#368,.T.);
#377=CARTESIAN_POINT('',(4.49E1,8.E-1,6.7144E0));
#378=DIRECTION('',(0.E0,0.E0,-1.E0));
#379=DIRECTION('',(1.E0,0.E0,0.E0));
#380=AXIS2_PLACEMENT_3D('',#377,#378,#379);
#381=CYLINDRICAL_SURFACE('',#380,3.E-1);
#382=ORIENTED_EDGE('',*,*,#341,.T.);
#383=ORIENTED_EDGE('',*,*,#371,.F.);
#384=ORIENTED_EDGE('',*,*,#267,.T.);
#386=ORIENTED_EDGE('',*,*,#385,.T.);
#387=EDGE_LOOP('',(#382,#383,#384,#386));
#388=FACE_OUTER_BOUND('',#387,.F.);
#389=ADVANCED_FACE('',(#388),#381,.T.);
#390=CARTESIAN_POINT('',(4.52E1,5.E-1,0.E0));
#391=DIRECTION('',(1.E0,0.E0,0.E0));
#392=DIRECTION('',(0.E0,1.E0,0.E0));
#393=AXIS2_PLACEMENT_3D('',#390,#391,#392);
#394=PLANE('',#393);
#396=ORIENTED_EDGE('',*,*,#395,.T.);
#397=ORIENTED_EDGE('',*,*,#343,.F.);
#398=ORIENTED_EDGE('',*,*,#385,.F.);
#399=ORIENTED_EDGE('',*,*,#265,.T.);
#400=EDGE_LOOP('',(#396,#397,#398,#399));
#401=FACE_OUTER_BOUND('',#400,.F.);
#402=ADVANCED_FACE('',(#401),#394,.T.);
#403=CARTESIAN_POINT('',(4.49E1,2.455684941437E1,6.7144E0));
#404=DIRECTION('',(0.E0,0.E0,-1.E0));
#405=DIRECTION('',(9.961946980917E-1,8.715574274767E-2,0.E0));
#406=AXIS2_PLACEMENT_3D('',#403,#404,#405);
#407=CYLINDRICAL_SURFACE('',#406,3.E-1);
#409=ORIENTED_EDGE('',*,*,#408,.T.);
#410=ORIENTED_EDGE('',*,*,#345,.F.);
#411=ORIENTED_EDGE('',*,*,#395,.F.);
#412=ORIENTED_EDGE('',*,*,#263,.F.);
#413=EDGE_LOOP('',(#409,#410,#411,#412));
#414=FACE_OUTER_BOUND('',#413,.F.);
#415=ADVANCED_FACE('',(#414),#407,.T.);
#416=CARTESIAN_POINT('',(4.52E1,2.456994769724E1,0.E0));
#417=DIRECTION('',(9.961946980917E-1,8.715574274766E-2,0.E0));
#418=DIRECTION('',(-8.715574274766E-2,9.961946980917E-1,0.E0));
#419=AXIS2_PLACEMENT_3D('',#416,#417,#418);
#420=PLANE('',#419);
#421=ORIENTED_EDGE('',*,*,#408,.F.);
#422=ORIENTED_EDGE('',*,*,#261,.T.);
#424=ORIENTED_EDGE('',*,*,#423,.T.);
#425=ORIENTED_EDGE('',*,*,#347,.F.);
#426=EDGE_LOOP('',(#421,#422,#424,#425));
#427=FACE_OUTER_BOUND('',#426,.F.);
#428=ADVANCED_FACE('',(#427),#420,.T.);
#429=CARTESIAN_POINT('',(4.392510064779E1,3.57E1,6.7144E0));
#430=DIRECTION('',(0.E0,0.E0,-1.E0));
#431=DIRECTION('',(0.E0,1.E0,0.E0));
#432=AXIS2_PLACEMENT_3D('',#429,#430,#431);
#433=CYLINDRICAL_SURFACE('',#432,3.E-1);
#434=ORIENTED_EDGE('',*,*,#349,.T.);
#435=ORIENTED_EDGE('',*,*,#423,.F.);
#436=ORIENTED_EDGE('',*,*,#259,.T.);
#438=ORIENTED_EDGE('',*,*,#437,.T.);
#439=EDGE_LOOP('',(#434,#435,#436,#438));
#440=FACE_OUTER_BOUND('',#439,.F.);
#441=ADVANCED_FACE('',(#440),#433,.T.);
#442=CARTESIAN_POINT('',(4.42E1,3.6E1,0.E0));
#443=DIRECTION('',(0.E0,1.E0,0.E0));
#444=DIRECTION('',(-1.E0,0.E0,0.E0));
#445=AXIS2_PLACEMENT_3D('',#442,#443,#444);
#446=PLANE('',#445);
#448=ORIENTED_EDGE('',*,*,#447,.F.);
#449=ORIENTED_EDGE('',*,*,#351,.F.);
#450=ORIENTED_EDGE('',*,*,#437,.F.);
#451=ORIENTED_EDGE('',*,*,#257,.T.);
#452=EDGE_LOOP('',(#448,#449,#450,#451));
#453=FACE_OUTER_BOUND('',#452,.F.);
#454=ADVANCED_FACE('',(#453),#446,.T.);
#455=CARTESIAN_POINT('',(-2.757510064779E1,3.57E1,-7.7144E0));
#456=DIRECTION('',(0.E0,0.E0,1.E0));
#457=DIRECTION('',(-1.184237892934E-14,1.E0,0.E0));
#458=AXIS2_PLACEMENT_3D('',#455,#456,#457);
#459=CYLINDRICAL_SURFACE('',#458,3.E-1);
#460=ORIENTED_EDGE('',*,*,#255,.T.);
#462=ORIENTED_EDGE('',*,*,#461,.F.);
#463=ORIENTED_EDGE('',*,*,#353,.T.);
#464=ORIENTED_EDGE('',*,*,#447,.T.);
#465=EDGE_LOOP('',(#460,#462,#463,#464));
#466=FACE_OUTER_BOUND('',#465,.F.);
#467=ADVANCED_FACE('',(#466),#459,.T.);
#468=CARTESIAN_POINT('',(-2.885E1,2.456994769724E1,-2.9E0));
#469=DIRECTION('',(9.961946980917E-1,-8.715574274766E-2,0.E0));
#470=DIRECTION('',(8.715574274766E-2,9.961946980917E-1,0.E0));
#471=AXIS2_PLACEMENT_3D('',#468,#469,#470);
#472=PLANE('',#471);
#474=ORIENTED_EDGE('',*,*,#473,.T.);
#475=ORIENTED_EDGE('',*,*,#355,.T.);
#476=ORIENTED_EDGE('',*,*,#461,.T.);
#477=ORIENTED_EDGE('',*,*,#253,.F.);
#478=EDGE_LOOP('',(#474,#475,#476,#477));
#479=FACE_OUTER_BOUND('',#478,.F.);
#480=ADVANCED_FACE('',(#479),#472,.F.);
#481=CARTESIAN_POINT('',(-2.855E1,2.455684941437E1,6.7144E0));
#482=DIRECTION('',(0.E0,0.E0,-1.E0));
#483=DIRECTION('',(-1.E0,0.E0,0.E0));
#484=AXIS2_PLACEMENT_3D('',#481,#482,#483);
#485=CYLINDRICAL_SURFACE('',#484,3.E-1);
#487=ORIENTED_EDGE('',*,*,#486,.T.);
#488=ORIENTED_EDGE('',*,*,#357,.F.);
#489=ORIENTED_EDGE('',*,*,#473,.F.);
#490=ORIENTED_EDGE('',*,*,#251,.F.);
#491=EDGE_LOOP('',(#487,#488,#489,#490));
#492=FACE_OUTER_BOUND('',#491,.F.);
#493=ADVANCED_FACE('',(#492),#485,.T.);
#494=CARTESIAN_POINT('',(-2.885E1,0.E0,-2.9E0));
#495=DIRECTION('',(1.E0,0.E0,0.E0));
#496=DIRECTION('',(0.E0,1.E0,0.E0));
#497=AXIS2_PLACEMENT_3D('',#494,#495,#496);
#498=PLANE('',#497);
#499=ORIENTED_EDGE('',*,*,#325,.T.);
#500=ORIENTED_EDGE('',*,*,#359,.T.);
#501=ORIENTED_EDGE('',*,*,#486,.F.);
#502=ORIENTED_EDGE('',*,*,#249,.F.);
#503=EDGE_LOOP('',(#499,#500,#501,#502));
#504=FACE_OUTER_BOUND('',#503,.F.);
#505=ADVANCED_FACE('',(#504),#498,.F.);
#506=CLOSED_SHELL('',(#279,#294,#307,#317,#332,#363,#376,#389,#402,#415,#428,
#441,#454,#467,#480,#493,#505));
#507=MANIFOLD_SOLID_BREP('',#506);
#509=DIMENSIONAL_EXPONENTS(0.E0,0.E0,0.E0,0.E0,0.E0,0.E0,0.E0);
#511=PLANE_ANGLE_MEASURE_WITH_UNIT(PLANE_ANGLE_MEASURE(1.745329251994E-2),#510);
#512=(CONVERSION_BASED_UNIT('DEGREE',#511)NAMED_UNIT(*)PLANE_ANGLE_UNIT());
#514=UNCERTAINTY_MEASURE_WITH_UNIT(LENGTH_MEASURE(1.2E-3),#508,'closure',
'Maximum model space distance between geometric entities at asserted connectivities');
#515=(GEOMETRIC_REPRESENTATION_CONTEXT(3)GLOBAL_UNCERTAINTY_ASSIGNED_CONTEXT((
#514))GLOBAL_UNIT_ASSIGNED_CONTEXT((#508,#512,#513))REPRESENTATION_CONTEXT
('ID1','3'));
#517=APPLICATION_CONTEXT(
'CONFIGURATION CONTROLLED 3D DESIGNS OF MECHANICAL PARTS AND ASSEMBLIES');
#518=APPLICATION_PROTOCOL_DEFINITION('international standard',
'config_control_design',1994,#517);
#519=DESIGN_CONTEXT('',#517,'design');
#520=MECHANICAL_CONTEXT('',#517,'mechanical');
#521=PRODUCT('PRK6_3A_AP','PRK6_3A_AP','NOT SPECIFIED',(#520));
#522=PRODUCT_DEFINITION_FORMATION_WITH_SPECIFIED_SOURCE('84','LAST_VERSION',
#521,.MADE.);
#526=PRODUCT_CATEGORY('part','');
#527=PRODUCT_RELATED_PRODUCT_CATEGORY('detail','',(#521));
#528=PRODUCT_CATEGORY_RELATIONSHIP('','',#526,#527);
#529=SECURITY_CLASSIFICATION_LEVEL('unclassified');
#530=SECURITY_CLASSIFICATION('','',#529);
#531=CC_DESIGN_SECURITY_CLASSIFICATION(#530,(#522));
#532=APPROVAL_STATUS('approved');
#533=APPROVAL(#532,'');
#534=CC_DESIGN_APPROVAL(#533,(#530,#522,#523));
#535=CALENDAR_DATE(119,19,9);
#536=COORDINATED_UNIVERSAL_TIME_OFFSET(2,0,.AHEAD.);
#537=LOCAL_TIME(10,35,1.4E1,#536);
#538=DATE_AND_TIME(#535,#537);
#539=APPROVAL_DATE_TIME(#538,#533);
#540=DATE_TIME_ROLE('creation_date');
#541=CC_DESIGN_DATE_AND_TIME_ASSIGNMENT(#538,#540,(#523));
#542=DATE_TIME_ROLE('classification_date');
#543=CC_DESIGN_DATE_AND_TIME_ASSIGNMENT(#538,#542,(#530));
#544=PERSON('UNSPECIFIED','UNSPECIFIED',$,$,$,$);
#545=ORGANIZATION('UNSPECIFIED','UNSPECIFIED','UNSPECIFIED');
#546=PERSON_AND_ORGANIZATION(#544,#545);
#547=APPROVAL_ROLE('approver');
#548=APPROVAL_PERSON_ORGANIZATION(#546,#533,#547);
#549=PERSON_AND_ORGANIZATION_ROLE('creator');
#550=CC_DESIGN_PERSON_AND_ORGANIZATION_ASSIGNMENT(#546,#549,(#522,#523));
#551=PERSON_AND_ORGANIZATION_ROLE('design_supplier');
#552=CC_DESIGN_PERSON_AND_ORGANIZATION_ASSIGNMENT(#546,#551,(#522));
#553=PERSON_AND_ORGANIZATION_ROLE('classification_officer');
#554=CC_DESIGN_PERSON_AND_ORGANIZATION_ASSIGNMENT(#546,#553,(#530));
#555=PERSON_AND_ORGANIZATION_ROLE('design_owner');
#556=CC_DESIGN_PERSON_AND_ORGANIZATION_ASSIGNMENT(#546,#555,(#521));
#6=CIRCLE('',#5,2.2E0);
#11=CIRCLE('',#10,2.2E0);
#16=CIRCLE('',#15,3.E-1);
#25=CIRCLE('',#24,3.E-1);
#34=CIRCLE('',#33,3.E-1);
#43=CIRCLE('',#42,3.E-1);
#52=CIRCLE('',#51,3.E-1);
#61=CIRCLE('',#60,3.E-1);
#70=CIRCLE('',#69,1.5E0);
#79=CIRCLE('',#78,1.5E0);
#88=CIRCLE('',#87,3.E-1);
#97=CIRCLE('',#96,3.E-1);
#106=CIRCLE('',#105,3.E-1);
#115=CIRCLE('',#114,3.E-1);
#124=CIRCLE('',#123,3.E-1);
#129=CIRCLE('',#128,3.E-1);
#247=EDGE_CURVE('',#215,#217,#16,.T.);
#249=EDGE_CURVE('',#215,#220,#20,.T.);
#251=EDGE_CURVE('',#220,#225,#25,.T.);
#253=EDGE_CURVE('',#225,#229,#29,.T.);
#255=EDGE_CURVE('',#228,#229,#34,.T.);
#257=EDGE_CURVE('',#201,#228,#38,.T.);
#259=EDGE_CURVE('',#199,#201,#43,.T.);
#261=EDGE_CURVE('',#188,#199,#47,.T.);
#263=EDGE_CURVE('',#188,#193,#52,.T.);
#265=EDGE_CURVE('',#209,#193,#56,.T.);
#267=EDGE_CURVE('',#207,#209,#61,.T.);
#269=EDGE_CURVE('',#217,#207,#65,.T.);
#273=EDGE_CURVE('',#240,#241,#6,.T.);
#275=EDGE_CURVE('',#241,#240,#11,.T.);
#286=EDGE_CURVE('',#236,#240,#83,.T.);
#288=EDGE_CURVE('',#236,#237,#70,.T.);
#290=EDGE_CURVE('',#237,#241,#74,.T.);
#302=EDGE_CURVE('',#236,#237,#79,.T.);
#323=EDGE_CURVE('',#212,#213,#88,.T.);
#325=EDGE_CURVE('',#215,#213,#177,.T.);
#328=EDGE_CURVE('',#217,#212,#133,.T.);
#339=EDGE_CURVE('',#212,#205,#92,.T.);
#341=EDGE_CURVE('',#204,#205,#97,.T.);
#343=EDGE_CURVE('',#204,#191,#101,.T.);
#345=EDGE_CURVE('',#191,#189,#106,.T.);
#347=EDGE_CURVE('',#189,#197,#110,.T.);
#349=EDGE_CURVE('',#196,#197,#115,.T.);
#351=EDGE_CURVE('',#196,#233,#119,.T.);
#353=EDGE_CURVE('',#231,#233,#124,.T.);
#355=EDGE_CURVE('',#223,#231,#169,.T.);
#357=EDGE_CURVE('',#223,#221,#129,.T.);
#359=EDGE_CURVE('',#213,#221,#181,.T.);
#371=EDGE_CURVE('',#207,#205,#137,.T.);
#385=EDGE_CURVE('',#209,#204,#145,.T.);
#395=EDGE_CURVE('',#193,#191,#141,.T.);
#408=EDGE_CURVE('',#188,#189,#149,.T.);
#423=EDGE_CURVE('',#199,#197,#153,.T.);
#437=EDGE_CURVE('',#201,#196,#161,.T.);
#447=EDGE_CURVE('',#233,#228,#157,.T.);
#461=EDGE_CURVE('',#231,#229,#173,.T.);
#473=EDGE_CURVE('',#225,#223,#165,.T.);
#486=EDGE_CURVE('',#220,#221,#185,.T.);
#508=(LENGTH_UNIT()NAMED_UNIT(*)SI_UNIT(.MILLI.,.METRE.));
#510=(NAMED_UNIT(*)PLANE_ANGLE_UNIT()SI_UNIT($,.RADIAN.));
#513=(NAMED_UNIT(*)SI_UNIT($,.STERADIAN.)SOLID_ANGLE_UNIT());
#516=ADVANCED_BREP_SHAPE_REPRESENTATION('',(#507),#515);
#523=PRODUCT_DEFINITION('design','',#522,#519);
#524=PRODUCT_DEFINITION_SHAPE('','SHAPE FOR PRK6_3A_AP.',#523);
#525=SHAPE_DEFINITION_REPRESENTATION(#524,#516);
ENDSEC;
END-ISO-10303-21;
