ISO-10303-21;
HEADER;
/* Generated by software containing ST-Developer
 * from STEP Tools, Inc. (www.steptools.com) 
 */
/* OPTION: using custom schema-name function */

FILE_DESCRIPTION(
/* description */ (''),
/* implementation_level */ '2;1');

FILE_NAME(
/* name */ '3400_FAP15_4_2A_iso.stp',
/* time_stamp */ '2011-08-01T12:43:22+02:00',
/* author */ (''),
/* organization */ (''),
/* preprocessor_version */ 'ST-DEVELOPER v11',
/* originating_system */ 'SIEMENS UGS NX 6.0',
/* authorisation */ '');

FILE_SCHEMA (('CONFIG_CONTROL_DESIGN'));
ENDSEC;

DATA;
#10=SHAPE_REPRESENTATION_RELATIONSHIP('None',
'relationship between 3400_FAP15_4_2A_iso-None and 3400_FAP15_4_2A_iso-
None',#94,#11);
#11=ADVANCED_BREP_SHAPE_REPRESENTATION('3400_FAP15_4_2A_iso-None',(#95),
#385);
#12=CC_DESIGN_APPROVAL(#24,(#82));
#13=CC_DESIGN_APPROVAL(#25,(#84));
#14=CC_DESIGN_APPROVAL(#26,(#31));
#15=APPROVAL_PERSON_ORGANIZATION(#69,#24,#18);
#16=APPROVAL_PERSON_ORGANIZATION(#70,#25,#19);
#17=APPROVAL_PERSON_ORGANIZATION(#71,#26,#20);
#18=APPROVAL_ROLE('approver');
#19=APPROVAL_ROLE('approver');
#20=APPROVAL_ROLE('approver');
#21=APPROVAL_DATE_TIME(#39,#24);
#22=APPROVAL_DATE_TIME(#40,#25);
#23=APPROVAL_DATE_TIME(#41,#26);
#24=APPROVAL(#27,' ');
#25=APPROVAL(#28,' ');
#26=APPROVAL(#29,' ');
#27=APPROVAL_STATUS('not_yet_approved');
#28=APPROVAL_STATUS('not_yet_approved');
#29=APPROVAL_STATUS('not_yet_approved');
#30=CC_DESIGN_SECURITY_CLASSIFICATION(#31,(#84));
#31=SECURITY_CLASSIFICATION(' ',' ',#32);
#32=SECURITY_CLASSIFICATION_LEVEL('confidential');
#33=CC_DESIGN_DATE_AND_TIME_ASSIGNMENT(#37,#35,(#82));
#34=CC_DESIGN_DATE_AND_TIME_ASSIGNMENT(#38,#36,(#31));
#35=DATE_TIME_ROLE('creation_date');
#36=DATE_TIME_ROLE('classification_date');
#37=DATE_AND_TIME(#52,#42);
#38=DATE_AND_TIME(#53,#43);
#39=DATE_AND_TIME(#54,#44);
#40=DATE_AND_TIME(#55,#45);
#41=DATE_AND_TIME(#56,#46);
#42=LOCAL_TIME(0,0,0.,#47);
#43=LOCAL_TIME(0,0,0.,#48);
#44=LOCAL_TIME(0,0,0.,#49);
#45=LOCAL_TIME(0,0,0.,#50);
#46=LOCAL_TIME(0,0,0.,#51);
#47=COORDINATED_UNIVERSAL_TIME_OFFSET(0,0,.BEHIND.);
#48=COORDINATED_UNIVERSAL_TIME_OFFSET(0,0,.BEHIND.);
#49=COORDINATED_UNIVERSAL_TIME_OFFSET(0,0,.BEHIND.);
#50=COORDINATED_UNIVERSAL_TIME_OFFSET(0,0,.BEHIND.);
#51=COORDINATED_UNIVERSAL_TIME_OFFSET(0,0,.BEHIND.);
#52=CALENDAR_DATE(0,1,1);
#53=CALENDAR_DATE(0,1,1);
#54=CALENDAR_DATE(0,1,1);
#55=CALENDAR_DATE(0,1,1);
#56=CALENDAR_DATE(0,1,1);
#57=CC_DESIGN_PERSON_AND_ORGANIZATION_ASSIGNMENT(#65,#61,(#82,#84));
#58=CC_DESIGN_PERSON_AND_ORGANIZATION_ASSIGNMENT(#66,#62,(#86));
#59=CC_DESIGN_PERSON_AND_ORGANIZATION_ASSIGNMENT(#67,#63,(#84));
#60=CC_DESIGN_PERSON_AND_ORGANIZATION_ASSIGNMENT(#68,#64,(#31));
#61=PERSON_AND_ORGANIZATION_ROLE('creator');
#62=PERSON_AND_ORGANIZATION_ROLE('design_owner');
#63=PERSON_AND_ORGANIZATION_ROLE('design_supplier');
#64=PERSON_AND_ORGANIZATION_ROLE('classification_officer');
#65=PERSON_AND_ORGANIZATION(#79,#72);
#66=PERSON_AND_ORGANIZATION(#79,#73);
#67=PERSON_AND_ORGANIZATION(#79,#74);
#68=PERSON_AND_ORGANIZATION(#79,#75);
#69=PERSON_AND_ORGANIZATION(#79,#76);
#70=PERSON_AND_ORGANIZATION(#79,#77);
#71=PERSON_AND_ORGANIZATION(#79,#78);
#72=ORGANIZATION(' ',' ',' ');
#73=ORGANIZATION(' ',' ',' ');
#74=ORGANIZATION(' ',' ',' ');
#75=ORGANIZATION(' ',' ',' ');
#76=ORGANIZATION(' ',' ',' ');
#77=ORGANIZATION(' ',' ',' ');
#78=ORGANIZATION(' ',' ',' ');
#79=PERSON(' ',' ',' ',(' '),$,$);
#80=SHAPE_DEFINITION_REPRESENTATION(#81,#94);
#81=PRODUCT_DEFINITION_SHAPE('','',#82);
#82=PRODUCT_DEFINITION(' ','',#84,#83);
#83=DESIGN_CONTEXT('',#93,'design');
#84=PRODUCT_DEFINITION_FORMATION_WITH_SPECIFIED_SOURCE(' ',' ',#86,.NOT_KNOWN.);
#85=PRODUCT_RELATED_PRODUCT_CATEGORY('detail','',(#86));
#86=PRODUCT('3400_FAP15_4_2A_iso','3400_FAP15_4_2A_iso',' ',(#91));
#87=PRODUCT_CATEGORY_RELATIONSHIP(' ',' ',#89,#90);
#88=PRODUCT_CATEGORY_RELATIONSHIP('','',#90,#85);
#89=PRODUCT_CATEGORY('part',' ');
#90=PRODUCT_CATEGORY(' ','');
#91=MECHANICAL_CONTEXT(' ',#93,'mechanical');
#92=APPLICATION_PROTOCOL_DEFINITION('international standard',
'config_control_design',1994,#93);
#93=APPLICATION_CONTEXT(
'configuration controlled 3D designs of mechanical parts and assemblies');
#94=SHAPE_REPRESENTATION('3400_FAP15_4_2A_iso-None',(#269),#385);
#95=MANIFOLD_SOLID_BREP('',#96);
#96=CLOSED_SHELL('',(#99,#100,#101,#102,#103,#104,#105,#106,#107,#108));
#97=CYLINDRICAL_SURFACE('',#274,1.);
#98=CYLINDRICAL_SURFACE('',#277,1.);
#99=ADVANCED_FACE('',(#117),#109,.F.);
#100=ADVANCED_FACE('',(#118),#97,.T.);
#101=ADVANCED_FACE('',(#119),#110,.T.);
#102=ADVANCED_FACE('',(#120),#98,.T.);
#103=ADVANCED_FACE('',(#121),#111,.T.);
#104=ADVANCED_FACE('',(#122),#112,.T.);
#105=ADVANCED_FACE('',(#123),#113,.T.);
#106=ADVANCED_FACE('',(#124),#114,.T.);
#107=ADVANCED_FACE('',(#125),#115,.T.);
#108=ADVANCED_FACE('',(#126),#116,.T.);
#109=PLANE('',#272);
#110=PLANE('',#275);
#111=PLANE('',#278);
#112=PLANE('',#279);
#113=PLANE('',#280);
#114=PLANE('',#281);
#115=PLANE('',#282);
#116=PLANE('',#283);
#117=FACE_OUTER_BOUND('',#127,.T.);
#118=FACE_OUTER_BOUND('',#128,.T.);
#119=FACE_OUTER_BOUND('',#129,.T.);
#120=FACE_OUTER_BOUND('',#130,.T.);
#121=FACE_OUTER_BOUND('',#131,.T.);
#122=FACE_OUTER_BOUND('',#132,.T.);
#123=FACE_OUTER_BOUND('',#133,.T.);
#124=FACE_OUTER_BOUND('',#134,.T.);
#125=FACE_OUTER_BOUND('',#135,.T.);
#126=FACE_OUTER_BOUND('',#136,.T.);
#127=EDGE_LOOP('',(#141,#142,#143,#144,#145,#146,#147,#148));
#128=EDGE_LOOP('',(#149,#150,#151,#152));
#129=EDGE_LOOP('',(#153,#154,#155,#156));
#130=EDGE_LOOP('',(#157,#158,#159,#160));
#131=EDGE_LOOP('',(#161,#162,#163,#164));
#132=EDGE_LOOP('',(#165,#166,#167,#168));
#133=EDGE_LOOP('',(#169,#170,#171,#172));
#134=EDGE_LOOP('',(#173,#174,#175,#176));
#135=EDGE_LOOP('',(#177,#178,#179,#180));
#136=EDGE_LOOP('',(#181,#182,#183,#184,#185,#186,#187,#188));
#137=CIRCLE('',#270,1.);
#138=CIRCLE('',#271,1.);
#139=CIRCLE('',#273,1.);
#140=CIRCLE('',#276,1.);
#141=ORIENTED_EDGE('',*,*,#205,.T.);
#142=ORIENTED_EDGE('',*,*,#206,.T.);
#143=ORIENTED_EDGE('',*,*,#207,.T.);
#144=ORIENTED_EDGE('',*,*,#208,.T.);
#145=ORIENTED_EDGE('',*,*,#209,.T.);
#146=ORIENTED_EDGE('',*,*,#210,.T.);
#147=ORIENTED_EDGE('',*,*,#211,.T.);
#148=ORIENTED_EDGE('',*,*,#212,.T.);
#149=ORIENTED_EDGE('',*,*,#212,.F.);
#150=ORIENTED_EDGE('',*,*,#213,.F.);
#151=ORIENTED_EDGE('',*,*,#214,.F.);
#152=ORIENTED_EDGE('',*,*,#215,.T.);
#153=ORIENTED_EDGE('',*,*,#216,.F.);
#154=ORIENTED_EDGE('',*,*,#217,.T.);
#155=ORIENTED_EDGE('',*,*,#205,.F.);
#156=ORIENTED_EDGE('',*,*,#215,.F.);
#157=ORIENTED_EDGE('',*,*,#206,.F.);
#158=ORIENTED_EDGE('',*,*,#217,.F.);
#159=ORIENTED_EDGE('',*,*,#218,.F.);
#160=ORIENTED_EDGE('',*,*,#219,.T.);
#161=ORIENTED_EDGE('',*,*,#220,.F.);
#162=ORIENTED_EDGE('',*,*,#221,.F.);
#163=ORIENTED_EDGE('',*,*,#207,.F.);
#164=ORIENTED_EDGE('',*,*,#219,.F.);
#165=ORIENTED_EDGE('',*,*,#222,.F.);
#166=ORIENTED_EDGE('',*,*,#223,.F.);
#167=ORIENTED_EDGE('',*,*,#208,.F.);
#168=ORIENTED_EDGE('',*,*,#221,.T.);
#169=ORIENTED_EDGE('',*,*,#223,.T.);
#170=ORIENTED_EDGE('',*,*,#224,.F.);
#171=ORIENTED_EDGE('',*,*,#225,.F.);
#172=ORIENTED_EDGE('',*,*,#209,.F.);
#173=ORIENTED_EDGE('',*,*,#225,.T.);
#174=ORIENTED_EDGE('',*,*,#226,.F.);
#175=ORIENTED_EDGE('',*,*,#227,.T.);
#176=ORIENTED_EDGE('',*,*,#210,.F.);
#177=ORIENTED_EDGE('',*,*,#211,.F.);
#178=ORIENTED_EDGE('',*,*,#227,.F.);
#179=ORIENTED_EDGE('',*,*,#228,.F.);
#180=ORIENTED_EDGE('',*,*,#213,.T.);
#181=ORIENTED_EDGE('',*,*,#228,.T.);
#182=ORIENTED_EDGE('',*,*,#226,.T.);
#183=ORIENTED_EDGE('',*,*,#224,.T.);
#184=ORIENTED_EDGE('',*,*,#222,.T.);
#185=ORIENTED_EDGE('',*,*,#220,.T.);
#186=ORIENTED_EDGE('',*,*,#218,.T.);
#187=ORIENTED_EDGE('',*,*,#216,.T.);
#188=ORIENTED_EDGE('',*,*,#214,.T.);
#189=VERTEX_POINT('',#336);
#190=VERTEX_POINT('',#337);
#191=VERTEX_POINT('',#339);
#192=VERTEX_POINT('',#341);
#193=VERTEX_POINT('',#343);
#194=VERTEX_POINT('',#345);
#195=VERTEX_POINT('',#347);
#196=VERTEX_POINT('',#349);
#197=VERTEX_POINT('',#353);
#198=VERTEX_POINT('',#355);
#199=VERTEX_POINT('',#359);
#200=VERTEX_POINT('',#363);
#201=VERTEX_POINT('',#367);
#202=VERTEX_POINT('',#371);
#203=VERTEX_POINT('',#375);
#204=VERTEX_POINT('',#379);
#205=EDGE_CURVE('',#189,#190,#229,.T.);
#206=EDGE_CURVE('',#190,#191,#137,.T.);
#207=EDGE_CURVE('',#191,#192,#230,.T.);
#208=EDGE_CURVE('',#192,#193,#231,.T.);
#209=EDGE_CURVE('',#193,#194,#232,.T.);
#210=EDGE_CURVE('',#194,#195,#233,.T.);
#211=EDGE_CURVE('',#195,#196,#234,.T.);
#212=EDGE_CURVE('',#196,#189,#138,.T.);
#213=EDGE_CURVE('',#197,#196,#235,.T.);
#214=EDGE_CURVE('',#198,#197,#139,.T.);
#215=EDGE_CURVE('',#198,#189,#236,.T.);
#216=EDGE_CURVE('',#199,#198,#237,.T.);
#217=EDGE_CURVE('',#199,#190,#238,.T.);
#218=EDGE_CURVE('',#200,#199,#140,.T.);
#219=EDGE_CURVE('',#200,#191,#239,.T.);
#220=EDGE_CURVE('',#201,#200,#240,.T.);
#221=EDGE_CURVE('',#192,#201,#241,.T.);
#222=EDGE_CURVE('',#202,#201,#242,.T.);
#223=EDGE_CURVE('',#193,#202,#243,.T.);
#224=EDGE_CURVE('',#203,#202,#244,.T.);
#225=EDGE_CURVE('',#194,#203,#245,.T.);
#226=EDGE_CURVE('',#204,#203,#246,.T.);
#227=EDGE_CURVE('',#204,#195,#247,.T.);
#228=EDGE_CURVE('',#197,#204,#248,.T.);
#229=LINE('',#335,#249);
#230=LINE('',#340,#250);
#231=LINE('',#342,#251);
#232=LINE('',#344,#252);
#233=LINE('',#346,#253);
#234=LINE('',#348,#254);
#235=LINE('',#352,#255);
#236=LINE('',#356,#256);
#237=LINE('',#358,#257);
#238=LINE('',#360,#258);
#239=LINE('',#364,#259);
#240=LINE('',#366,#260);
#241=LINE('',#368,#261);
#242=LINE('',#370,#262);
#243=LINE('',#372,#263);
#244=LINE('',#374,#264);
#245=LINE('',#376,#265);
#246=LINE('',#378,#266);
#247=LINE('',#380,#267);
#248=LINE('',#382,#268);
#249=VECTOR('',#286,1.);
#250=VECTOR('',#289,1.);
#251=VECTOR('',#290,1.);
#252=VECTOR('',#291,1.);
#253=VECTOR('',#292,1.);
#254=VECTOR('',#293,1.);
#255=VECTOR('',#298,1.);
#256=VECTOR('',#301,1.);
#257=VECTOR('',#304,1.);
#258=VECTOR('',#305,1.);
#259=VECTOR('',#310,1.);
#260=VECTOR('',#313,1.);
#261=VECTOR('',#314,1.);
#262=VECTOR('',#317,1.);
#263=VECTOR('',#318,1.);
#264=VECTOR('',#321,1.);
#265=VECTOR('',#322,1.);
#266=VECTOR('',#325,1.);
#267=VECTOR('',#326,1.);
#268=VECTOR('',#329,1.);
#269=AXIS2_PLACEMENT_3D('',#334,#284,#285);
#270=AXIS2_PLACEMENT_3D('',#338,#287,#288);
#271=AXIS2_PLACEMENT_3D('',#350,#294,#295);
#272=AXIS2_PLACEMENT_3D('',#351,#296,#297);
#273=AXIS2_PLACEMENT_3D('',#354,#299,#300);
#274=AXIS2_PLACEMENT_3D('',#357,#302,#303);
#275=AXIS2_PLACEMENT_3D('',#361,#306,#307);
#276=AXIS2_PLACEMENT_3D('',#362,#308,#309);
#277=AXIS2_PLACEMENT_3D('',#365,#311,#312);
#278=AXIS2_PLACEMENT_3D('',#369,#315,#316);
#279=AXIS2_PLACEMENT_3D('',#373,#319,#320);
#280=AXIS2_PLACEMENT_3D('',#377,#323,#324);
#281=AXIS2_PLACEMENT_3D('',#381,#327,#328);
#282=AXIS2_PLACEMENT_3D('',#383,#330,#331);
#283=AXIS2_PLACEMENT_3D('',#384,#332,#333);
#284=DIRECTION('',(0.,0.,1.));
#285=DIRECTION('',(1.,0.,0.));
#286=DIRECTION('',(-1.,0.,0.));
#287=DIRECTION('',(0.,0.,-1.));
#288=DIRECTION('',(0.,-0.999999999999999,0.));
#289=DIRECTION('',(0.,1.,0.));
#290=DIRECTION('',(0.500000000000017,0.866025403784429,0.));
#291=DIRECTION('',(1.,0.,0.));
#292=DIRECTION('',(0.500000000000017,-0.866025403784429,0.));
#293=DIRECTION('',(0.,-1.,0.));
#294=DIRECTION('',(0.,0.,-1.));
#295=DIRECTION('',(1.,0.,0.));
#296=DIRECTION('',(0.,0.,1.));
#297=DIRECTION('',(1.,0.,0.));
#298=DIRECTION('',(0.,0.,-1.));
#299=DIRECTION('',(0.,0.,1.));
#300=DIRECTION('',(0.,-0.999999999999999,0.));
#301=DIRECTION('',(0.,0.,-1.));
#302=DIRECTION('',(0.,0.,-1.));
#303=DIRECTION('',(-1.,0.,0.));
#304=DIRECTION('',(1.,0.,0.));
#305=DIRECTION('',(0.,0.,-1.));
#306=DIRECTION('',(0.,-1.,0.));
#307=DIRECTION('',(0.,0.,-1.));
#308=DIRECTION('',(0.,0.,1.));
#309=DIRECTION('',(-1.,0.,0.));
#310=DIRECTION('',(0.,0.,-1.));
#311=DIRECTION('',(0.,0.,-1.));
#312=DIRECTION('',(-1.,0.,0.));
#313=DIRECTION('',(0.,-1.,0.));
#314=DIRECTION('',(0.,0.,1.));
#315=DIRECTION('',(-1.,0.,0.));
#316=DIRECTION('',(0.,0.,1.));
#317=DIRECTION('',(-0.500000000000017,-0.866025403784429,0.));
#318=DIRECTION('',(0.,0.,1.));
#319=DIRECTION('',(-0.866025403784429,0.500000000000017,0.));
#320=DIRECTION('',(-0.500000000000017,-0.866025403784429,0.));
#321=DIRECTION('',(-1.,0.,0.));
#322=DIRECTION('',(0.,0.,1.));
#323=DIRECTION('',(0.,1.,0.));
#324=DIRECTION('',(0.,0.,1.));
#325=DIRECTION('',(-0.500000000000017,0.866025403784429,0.));
#326=DIRECTION('',(0.,0.,-1.));
#327=DIRECTION('',(0.866025403784429,0.500000000000017,0.));
#328=DIRECTION('',(-0.500000000000017,0.866025403784429,0.));
#329=DIRECTION('',(0.,1.,0.));
#330=DIRECTION('',(1.,0.,0.));
#331=DIRECTION('',(0.,0.,-1.));
#332=DIRECTION('',(0.,0.,1.));
#333=DIRECTION('',(1.,0.,0.));
#334=CARTESIAN_POINT('',(0.,0.,0.));
#335=CARTESIAN_POINT('',(23.25,-11.5,0.));
#336=CARTESIAN_POINT('',(23.25,-11.5,0.));
#337=CARTESIAN_POINT('',(-23.25,-11.5,0.));
#338=CARTESIAN_POINT('',(-23.25,-10.5,0.));
#339=CARTESIAN_POINT('',(-24.25,-10.5,0.));
#340=CARTESIAN_POINT('',(-24.25,-10.5,0.));
#341=CARTESIAN_POINT('',(-24.25,12.,0.));
#342=CARTESIAN_POINT('',(-24.25,12.,0.));
#343=CARTESIAN_POINT('',(-19.63119784648,20.,0.));
#344=CARTESIAN_POINT('',(-19.63119784648,20.,0.));
#345=CARTESIAN_POINT('',(19.63119784648,20.,0.));
#346=CARTESIAN_POINT('',(19.63119784648,20.,0.));
#347=CARTESIAN_POINT('',(24.25,12.,0.));
#348=CARTESIAN_POINT('',(24.25,12.,0.));
#349=CARTESIAN_POINT('',(24.25,-10.5,0.));
#350=CARTESIAN_POINT('',(23.25,-10.5,0.));
#351=CARTESIAN_POINT('',(0.,0.,0.));
#352=CARTESIAN_POINT('',(24.25,-10.5,1.5));
#353=CARTESIAN_POINT('',(24.25,-10.5,1.5));
#354=CARTESIAN_POINT('',(23.25,-10.5,1.5));
#355=CARTESIAN_POINT('',(23.25,-11.5,1.5));
#356=CARTESIAN_POINT('',(23.25,-11.5,1.5));
#357=CARTESIAN_POINT('',(23.25,-10.5,1.5187776));
#358=CARTESIAN_POINT('',(-23.25,-11.5,1.5));
#359=CARTESIAN_POINT('',(-23.25,-11.5,1.5));
#360=CARTESIAN_POINT('',(-23.25,-11.5,1.5));
#361=CARTESIAN_POINT('',(-24.25,-11.5,0.));
#362=CARTESIAN_POINT('',(-23.25,-10.5,1.5));
#363=CARTESIAN_POINT('',(-24.25,-10.5,1.5));
#364=CARTESIAN_POINT('',(-24.25,-10.5,1.5));
#365=CARTESIAN_POINT('',(-23.25,-10.5,1.5187776));
#366=CARTESIAN_POINT('',(-24.25,12.,1.5));
#367=CARTESIAN_POINT('',(-24.25,12.,1.5));
#368=CARTESIAN_POINT('',(-24.25,12.,0.));
#369=CARTESIAN_POINT('',(-24.25,12.,0.));
#370=CARTESIAN_POINT('',(-19.63119784648,20.,1.5));
#371=CARTESIAN_POINT('',(-19.63119784648,20.,1.5));
#372=CARTESIAN_POINT('',(-19.63119784648,20.,0.));
#373=CARTESIAN_POINT('',(-19.63119784648,20.,0.));
#374=CARTESIAN_POINT('',(19.63119784648,20.,1.5));
#375=CARTESIAN_POINT('',(19.63119784648,20.,1.5));
#376=CARTESIAN_POINT('',(19.63119784648,20.,0.));
#377=CARTESIAN_POINT('',(19.63119784648,20.,0.));
#378=CARTESIAN_POINT('',(24.25,12.,1.5));
#379=CARTESIAN_POINT('',(24.25,12.,1.5));
#380=CARTESIAN_POINT('',(24.25,12.,1.5));
#381=CARTESIAN_POINT('',(24.25,12.,0.));
#382=CARTESIAN_POINT('',(24.25,-10.5,1.5));
#383=CARTESIAN_POINT('',(24.25,-11.5,0.));
#384=CARTESIAN_POINT('',(0.,0.,1.5));
#385=(
GEOMETRIC_REPRESENTATION_CONTEXT(3)
GLOBAL_UNCERTAINTY_ASSIGNED_CONTEXT((#386))
GLOBAL_UNIT_ASSIGNED_CONTEXT((#392,#388,#387))
REPRESENTATION_CONTEXT('3400_FAP15_4_2A_iso','TOP_LEVEL_ASSEMBLY_PART')
);
#386=UNCERTAINTY_MEASURE_WITH_UNIT(LENGTH_MEASURE(2.E-005),#392,
'DISTANCE_ACCURACY_VALUE','Maximum Tolerance applied to model');
#387=(
NAMED_UNIT(*)
SI_UNIT($,.STERADIAN.)
SOLID_ANGLE_UNIT()
);
#388=(
CONVERSION_BASED_UNIT('DEGREE',#390)
NAMED_UNIT(#389)
PLANE_ANGLE_UNIT()
);
#389=DIMENSIONAL_EXPONENTS(0.,0.,0.,0.,0.,0.,0.);
#390=PLANE_ANGLE_MEASURE_WITH_UNIT(PLANE_ANGLE_MEASURE(0.0174532925),#391);
#391=(
NAMED_UNIT(*)
PLANE_ANGLE_UNIT()
SI_UNIT($,.RADIAN.)
);
#392=(
LENGTH_UNIT()
NAMED_UNIT(*)
SI_UNIT(.MILLI.,.METRE.)
);
ENDSEC;
END-ISO-10303-21;
