ISO-10303-21;
HEADER;
FILE_DESCRIPTION((''),'2;1');
FILE_NAME('27108_PAP4_4A','2019-07-18T',('Christian Carl'),(''),
'CREO PARAMETRIC BY PTC INC, 2016380','CREO PARAMETRIC BY PTC INC, 2016380','');
FILE_SCHEMA(('CONFIG_CONTROL_DESIGN'));
ENDSEC;
DATA;
#2=CARTESIAN_POINT('',(0.E0,1.49E1,1.5E0));
#3=DIRECTION('',(0.E0,0.E0,-1.E0));
#4=DIRECTION('',(1.E0,0.E0,0.E0));
#5=AXIS2_PLACEMENT_3D('',#2,#3,#4);
#7=CARTESIAN_POINT('',(0.E0,1.49E1,1.5E0));
#8=DIRECTION('',(0.E0,0.E0,-1.E0));
#9=DIRECTION('',(-1.E0,0.E0,0.E0));
#10=AXIS2_PLACEMENT_3D('',#7,#8,#9);
#12=CARTESIAN_POINT('',(3.82E1,1.775684941437E1,1.5E0));
#13=DIRECTION('',(0.E0,0.E0,-1.E0));
#14=DIRECTION('',(9.961946980917E-1,8.715574274767E-2,0.E0));
#15=AXIS2_PLACEMENT_3D('',#12,#13,#14);
#17=DIRECTION('',(0.E0,1.E0,0.E0));
#18=VECTOR('',#17,1.695684941437E1);
#19=CARTESIAN_POINT('',(3.85E1,8.E-1,1.5E0));
#20=LINE('',#19,#18);
#21=CARTESIAN_POINT('',(3.82E1,8.E-1,1.5E0));
#22=DIRECTION('',(0.E0,0.E0,1.E0));
#23=DIRECTION('',(0.E0,-1.E0,0.E0));
#24=AXIS2_PLACEMENT_3D('',#21,#22,#23);
#26=DIRECTION('',(1.E0,0.E0,0.E0));
#27=VECTOR('',#26,7.64E1);
#28=CARTESIAN_POINT('',(-3.82E1,5.E-1,1.5E0));
#29=LINE('',#28,#27);
#30=CARTESIAN_POINT('',(-3.82E1,8.E-1,1.5E0));
#31=DIRECTION('',(0.E0,0.E0,1.E0));
#32=DIRECTION('',(-1.E0,0.E0,0.E0));
#33=AXIS2_PLACEMENT_3D('',#30,#31,#32);
#35=DIRECTION('',(0.E0,-1.E0,0.E0));
#36=VECTOR('',#35,1.695684941437E1);
#37=CARTESIAN_POINT('',(-3.85E1,1.775684941437E1,1.5E0));
#38=LINE('',#37,#36);
#39=CARTESIAN_POINT('',(-3.82E1,1.775684941437E1,1.5E0));
#40=DIRECTION('',(0.E0,0.E0,-1.E0));
#41=DIRECTION('',(-1.E0,0.E0,0.E0));
#42=AXIS2_PLACEMENT_3D('',#39,#40,#41);
#44=DIRECTION('',(-8.715574274766E-2,-9.961946980917E-1,0.E0));
#45=VECTOR('',#44,1.118571561059E1);
#46=CARTESIAN_POINT('',(-3.752395905722E1,2.892614672282E1,1.5E0));
#47=LINE('',#46,#45);
#48=CARTESIAN_POINT('',(-3.722510064779E1,2.89E1,1.5E0));
#49=DIRECTION('',(0.E0,0.E0,1.E0));
#50=DIRECTION('',(0.E0,1.E0,0.E0));
#51=AXIS2_PLACEMENT_3D('',#48,#49,#50);
#53=DIRECTION('',(-1.E0,0.E0,0.E0));
#54=VECTOR('',#53,7.445020129559E1);
#55=CARTESIAN_POINT('',(3.722510064779E1,2.92E1,1.5E0));
#56=LINE('',#55,#54);
#57=CARTESIAN_POINT('',(3.722510064779E1,2.89E1,1.5E0));
#58=DIRECTION('',(0.E0,0.E0,1.E0));
#59=DIRECTION('',(9.961946980917E-1,8.715574274766E-2,0.E0));
#60=AXIS2_PLACEMENT_3D('',#57,#58,#59);
#62=DIRECTION('',(-8.715574274766E-2,9.961946980917E-1,0.E0));
#63=VECTOR('',#62,1.118571561059E1);
#64=CARTESIAN_POINT('',(3.849885840943E1,1.778299613719E1,1.5E0));
#65=LINE('',#64,#63);
#66=DIRECTION('',(7.071067811865E-1,1.519849500007E-12,7.071067811865E-1));
#67=VECTOR('',#66,7.071067811862E-1);
#68=CARTESIAN_POINT('',(1.499999999999E0,1.49E1,9.999999999993E-1));
#69=LINE('',#68,#67);
#70=CARTESIAN_POINT('',(0.E0,1.49E1,1.E0));
#71=DIRECTION('',(0.E0,0.E0,-1.E0));
#72=DIRECTION('',(1.E0,0.E0,0.E0));
#73=AXIS2_PLACEMENT_3D('',#70,#71,#72);
#75=CARTESIAN_POINT('',(0.E0,1.49E1,1.E0));
#76=DIRECTION('',(0.E0,0.E0,-1.E0));
#77=DIRECTION('',(-1.E0,0.E0,0.E0));
#78=AXIS2_PLACEMENT_3D('',#75,#76,#77);
#80=DIRECTION('',(-7.071067811865E-1,-1.522361647940E-12,7.071067811865E-1));
#81=VECTOR('',#80,7.071067811862E-1);
#82=CARTESIAN_POINT('',(-1.499999999999E0,1.49E1,9.999999999993E-1));
#83=LINE('',#82,#81);
#84=DIRECTION('',(0.E0,0.E0,-1.E0));
#85=VECTOR('',#84,1.5E0);
#86=CARTESIAN_POINT('',(3.849885840943E1,1.778299613719E1,1.5E0));
#87=LINE('',#86,#85);
#88=DIRECTION('',(0.E0,0.E0,-1.E0));
#89=VECTOR('',#88,1.5E0);
#90=CARTESIAN_POINT('',(3.752395905722E1,2.892614672282E1,1.5E0));
#91=LINE('',#90,#89);
#92=CARTESIAN_POINT('',(3.82E1,1.775684941437E1,0.E0));
#93=DIRECTION('',(0.E0,0.E0,1.E0));
#94=DIRECTION('',(1.E0,1.184237892934E-14,0.E0));
#95=AXIS2_PLACEMENT_3D('',#92,#93,#94);
#97=DIRECTION('',(-8.715574274766E-2,9.961946980917E-1,0.E0));
#98=VECTOR('',#97,1.118571561059E1);
#99=CARTESIAN_POINT('',(3.849885840943E1,1.778299613719E1,0.E0));
#100=LINE('',#99,#98);
#101=CARTESIAN_POINT('',(3.722510064779E1,2.89E1,0.E0));
#102=DIRECTION('',(0.E0,0.E0,-1.E0));
#103=DIRECTION('',(0.E0,1.E0,0.E0));
#104=AXIS2_PLACEMENT_3D('',#101,#102,#103);
#106=DIRECTION('',(-1.E0,0.E0,0.E0));
#107=VECTOR('',#106,7.445020129559E1);
#108=CARTESIAN_POINT('',(3.722510064779E1,2.92E1,0.E0));
#109=LINE('',#108,#107);
#110=CARTESIAN_POINT('',(-3.722510064779E1,2.89E1,0.E0));
#111=DIRECTION('',(0.E0,0.E0,-1.E0));
#112=DIRECTION('',(-9.961946980917E-1,8.715574274766E-2,0.E0));
#113=AXIS2_PLACEMENT_3D('',#110,#111,#112);
#115=DIRECTION('',(-8.715574274766E-2,-9.961946980917E-1,0.E0));
#116=VECTOR('',#115,1.118571561059E1);
#117=CARTESIAN_POINT('',(-3.752395905722E1,2.892614672282E1,0.E0));
#118=LINE('',#117,#116);
#119=CARTESIAN_POINT('',(-3.82E1,1.775684941437E1,0.E0));
#120=DIRECTION('',(0.E0,0.E0,1.E0));
#121=DIRECTION('',(-9.961946980917E-1,8.715574274766E-2,0.E0));
#122=AXIS2_PLACEMENT_3D('',#119,#120,#121);
#124=DIRECTION('',(0.E0,-1.E0,0.E0));
#125=VECTOR('',#124,1.695684941437E1);
#126=CARTESIAN_POINT('',(-3.85E1,1.775684941437E1,0.E0));
#127=LINE('',#126,#125);
#128=CARTESIAN_POINT('',(-3.82E1,8.E-1,0.E0));
#129=DIRECTION('',(0.E0,0.E0,-1.E0));
#130=DIRECTION('',(0.E0,-1.E0,0.E0));
#131=AXIS2_PLACEMENT_3D('',#128,#129,#130);
#133=DIRECTION('',(1.E0,0.E0,0.E0));
#134=VECTOR('',#133,7.64E1);
#135=CARTESIAN_POINT('',(-3.82E1,5.E-1,0.E0));
#136=LINE('',#135,#134);
#137=CARTESIAN_POINT('',(3.82E1,8.E-1,0.E0));
#138=DIRECTION('',(0.E0,0.E0,-1.E0));
#139=DIRECTION('',(1.E0,0.E0,0.E0));
#140=AXIS2_PLACEMENT_3D('',#137,#138,#139);
#142=DIRECTION('',(0.E0,1.E0,0.E0));
#143=VECTOR('',#142,1.695684941437E1);
#144=CARTESIAN_POINT('',(3.85E1,8.E-1,0.E0));
#145=LINE('',#144,#143);
#146=DIRECTION('',(0.E0,0.E0,-1.E0));
#147=VECTOR('',#146,1.5E0);
#148=CARTESIAN_POINT('',(3.722510064779E1,2.92E1,1.5E0));
#149=LINE('',#148,#147);
#150=DIRECTION('',(0.E0,0.E0,-1.E0));
#151=VECTOR('',#150,1.5E0);
#152=CARTESIAN_POINT('',(-3.722510064779E1,2.92E1,1.5E0));
#153=LINE('',#152,#151);
#154=DIRECTION('',(0.E0,0.E0,-1.E0));
#155=VECTOR('',#154,1.5E0);
#156=CARTESIAN_POINT('',(-3.752395905722E1,2.892614672282E1,1.5E0));
#157=LINE('',#156,#155);
#158=DIRECTION('',(0.E0,0.E0,-1.E0));
#159=VECTOR('',#158,1.5E0);
#160=CARTESIAN_POINT('',(-3.849885840943E1,1.778299613719E1,1.5E0));
#161=LINE('',#160,#159);
#162=DIRECTION('',(0.E0,0.E0,-1.E0));
#163=VECTOR('',#162,1.5E0);
#164=CARTESIAN_POINT('',(-3.85E1,1.775684941437E1,1.5E0));
#165=LINE('',#164,#163);
#166=DIRECTION('',(0.E0,0.E0,-1.E0));
#167=VECTOR('',#166,1.5E0);
#168=CARTESIAN_POINT('',(-3.85E1,8.E-1,1.5E0));
#169=LINE('',#168,#167);
#170=DIRECTION('',(0.E0,0.E0,-1.E0));
#171=VECTOR('',#170,1.5E0);
#172=CARTESIAN_POINT('',(-3.82E1,5.E-1,1.5E0));
#173=LINE('',#172,#171);
#174=DIRECTION('',(0.E0,0.E0,-1.E0));
#175=VECTOR('',#174,1.5E0);
#176=CARTESIAN_POINT('',(3.82E1,5.E-1,1.5E0));
#177=LINE('',#176,#175);
#178=DIRECTION('',(0.E0,0.E0,-1.E0));
#179=VECTOR('',#178,1.5E0);
#180=CARTESIAN_POINT('',(3.85E1,1.775684941437E1,1.5E0));
#181=LINE('',#180,#179);
#182=DIRECTION('',(0.E0,0.E0,-1.E0));
#183=VECTOR('',#182,1.5E0);
#184=CARTESIAN_POINT('',(3.85E1,8.E-1,1.5E0));
#185=LINE('',#184,#183);
#186=CARTESIAN_POINT('',(3.849885840943E1,1.778299613719E1,1.5E0));
#187=CARTESIAN_POINT('',(3.849885840943E1,1.778299613719E1,0.E0));
#188=VERTEX_POINT('',#186);
#189=VERTEX_POINT('',#187);
#190=CARTESIAN_POINT('',(3.85E1,1.775684941437E1,0.E0));
#191=VERTEX_POINT('',#190);
#192=CARTESIAN_POINT('',(3.85E1,1.775684941437E1,1.5E0));
#193=VERTEX_POINT('',#192);
#194=CARTESIAN_POINT('',(3.722510064779E1,2.92E1,0.E0));
#195=CARTESIAN_POINT('',(3.752395905722E1,2.892614672282E1,0.E0));
#196=VERTEX_POINT('',#194);
#197=VERTEX_POINT('',#195);
#198=CARTESIAN_POINT('',(3.752395905722E1,2.892614672282E1,1.5E0));
#199=VERTEX_POINT('',#198);
#200=CARTESIAN_POINT('',(3.722510064779E1,2.92E1,1.5E0));
#201=VERTEX_POINT('',#200);
#202=CARTESIAN_POINT('',(-3.752395905722E1,2.892614672282E1,0.E0));
#203=CARTESIAN_POINT('',(-3.722510064779E1,2.92E1,0.E0));
#204=VERTEX_POINT('',#202);
#205=VERTEX_POINT('',#203);
#206=CARTESIAN_POINT('',(-3.722510064779E1,2.92E1,1.5E0));
#207=VERTEX_POINT('',#206);
#208=CARTESIAN_POINT('',(-3.752395905722E1,2.892614672282E1,1.5E0));
#209=VERTEX_POINT('',#208);
#210=CARTESIAN_POINT('',(-3.85E1,1.775684941437E1,1.5E0));
#211=CARTESIAN_POINT('',(-3.85E1,1.775684941437E1,0.E0));
#212=VERTEX_POINT('',#210);
#213=VERTEX_POINT('',#211);
#214=CARTESIAN_POINT('',(-3.849885840943E1,1.778299613719E1,0.E0));
#215=VERTEX_POINT('',#214);
#216=CARTESIAN_POINT('',(-3.849885840943E1,1.778299613719E1,1.5E0));
#217=VERTEX_POINT('',#216);
#218=CARTESIAN_POINT('',(-3.82E1,5.E-1,0.E0));
#219=CARTESIAN_POINT('',(-3.85E1,8.E-1,0.E0));
#220=VERTEX_POINT('',#218);
#221=VERTEX_POINT('',#219);
#222=CARTESIAN_POINT('',(-3.85E1,8.E-1,1.5E0));
#223=VERTEX_POINT('',#222);
#224=CARTESIAN_POINT('',(-3.82E1,5.E-1,1.5E0));
#225=VERTEX_POINT('',#224);
#226=CARTESIAN_POINT('',(3.85E1,8.E-1,0.E0));
#227=CARTESIAN_POINT('',(3.82E1,5.E-1,0.E0));
#228=VERTEX_POINT('',#226);
#229=VERTEX_POINT('',#227);
#230=CARTESIAN_POINT('',(3.82E1,5.E-1,1.5E0));
#231=VERTEX_POINT('',#230);
#232=CARTESIAN_POINT('',(3.85E1,8.E-1,1.5E0));
#233=VERTEX_POINT('',#232);
#234=CARTESIAN_POINT('',(1.5E0,1.49E1,1.E0));
#235=CARTESIAN_POINT('',(-1.5E0,1.49E1,1.E0));
#236=VERTEX_POINT('',#234);
#237=VERTEX_POINT('',#235);
#238=CARTESIAN_POINT('',(2.E0,1.49E1,1.5E0));
#239=CARTESIAN_POINT('',(-2.E0,1.49E1,1.5E0));
#240=VERTEX_POINT('',#238);
#241=VERTEX_POINT('',#239);
#242=CARTESIAN_POINT('',(0.E0,0.E0,1.5E0));
#243=DIRECTION('',(0.E0,0.E0,1.E0));
#244=DIRECTION('',(1.E0,0.E0,0.E0));
#245=AXIS2_PLACEMENT_3D('',#242,#243,#244);
#246=PLANE('',#245);
#248=ORIENTED_EDGE('',*,*,#247,.T.);
#250=ORIENTED_EDGE('',*,*,#249,.F.);
#252=ORIENTED_EDGE('',*,*,#251,.F.);
#254=ORIENTED_EDGE('',*,*,#253,.F.);
#256=ORIENTED_EDGE('',*,*,#255,.F.);
#258=ORIENTED_EDGE('',*,*,#257,.F.);
#260=ORIENTED_EDGE('',*,*,#259,.T.);
#262=ORIENTED_EDGE('',*,*,#261,.F.);
#264=ORIENTED_EDGE('',*,*,#263,.F.);
#266=ORIENTED_EDGE('',*,*,#265,.F.);
#268=ORIENTED_EDGE('',*,*,#267,.F.);
#270=ORIENTED_EDGE('',*,*,#269,.F.);
#271=EDGE_LOOP('',(#248,#250,#252,#254,#256,#258,#260,#262,#264,#266,#268,
#270));
#272=FACE_OUTER_BOUND('',#271,.F.);
#274=ORIENTED_EDGE('',*,*,#273,.F.);
#276=ORIENTED_EDGE('',*,*,#275,.F.);
#277=EDGE_LOOP('',(#274,#276));
#278=FACE_BOUND('',#277,.F.);
#279=ADVANCED_FACE('',(#272,#278),#246,.T.);
#280=CARTESIAN_POINT('',(0.E0,1.49E1,1.249999999999E0));
#281=DIRECTION('',(0.E0,0.E0,1.E0));
#282=DIRECTION('',(0.E0,-1.E0,0.E0));
#283=AXIS2_PLACEMENT_3D('',#280,#281,#282);
#284=CONICAL_SURFACE('',#283,1.749999999999E0,4.5E1);
#286=ORIENTED_EDGE('',*,*,#285,.F.);
#288=ORIENTED_EDGE('',*,*,#287,.T.);
#289=ORIENTED_EDGE('',*,*,#273,.T.);
#291=ORIENTED_EDGE('',*,*,#290,.F.);
#292=EDGE_LOOP('',(#286,#288,#289,#291));
#293=FACE_OUTER_BOUND('',#292,.F.);
#294=ADVANCED_FACE('',(#293),#284,.F.);
#295=CARTESIAN_POINT('',(0.E0,0.E0,1.E0));
#296=DIRECTION('',(0.E0,0.E0,1.E0));
#297=DIRECTION('',(1.E0,0.E0,0.E0));
#298=AXIS2_PLACEMENT_3D('',#295,#296,#297);
#299=PLANE('',#298);
#300=ORIENTED_EDGE('',*,*,#285,.T.);
#302=ORIENTED_EDGE('',*,*,#301,.T.);
#303=EDGE_LOOP('',(#300,#302));
#304=FACE_OUTER_BOUND('',#303,.F.);
#305=ADVANCED_FACE('',(#304),#299,.T.);
#306=CARTESIAN_POINT('',(0.E0,1.49E1,1.249999999999E0));
#307=DIRECTION('',(0.E0,0.E0,1.E0));
#308=DIRECTION('',(0.E0,-1.E0,0.E0));
#309=AXIS2_PLACEMENT_3D('',#306,#307,#308);
#310=CONICAL_SURFACE('',#309,1.749999999999E0,4.5E1);
#311=ORIENTED_EDGE('',*,*,#301,.F.);
#312=ORIENTED_EDGE('',*,*,#290,.T.);
#313=ORIENTED_EDGE('',*,*,#275,.T.);
#314=ORIENTED_EDGE('',*,*,#287,.F.);
#315=EDGE_LOOP('',(#311,#312,#313,#314));
#316=FACE_OUTER_BOUND('',#315,.F.);
#317=ADVANCED_FACE('',(#316),#310,.F.);
#318=CARTESIAN_POINT('',(3.82E1,1.775684941437E1,6.7144E0));
#319=DIRECTION('',(0.E0,0.E0,-1.E0));
#320=DIRECTION('',(9.961946980917E-1,8.715574274767E-2,0.E0));
#321=AXIS2_PLACEMENT_3D('',#318,#319,#320);
#322=CYLINDRICAL_SURFACE('',#321,3.E-1);
#324=ORIENTED_EDGE('',*,*,#323,.T.);
#326=ORIENTED_EDGE('',*,*,#325,.F.);
#328=ORIENTED_EDGE('',*,*,#327,.F.);
#329=ORIENTED_EDGE('',*,*,#247,.F.);
#330=EDGE_LOOP('',(#324,#326,#328,#329));
#331=FACE_OUTER_BOUND('',#330,.F.);
#332=ADVANCED_FACE('',(#331),#322,.T.);
#333=CARTESIAN_POINT('',(3.85E1,1.776994769724E1,0.E0));
#334=DIRECTION('',(9.961946980917E-1,8.715574274766E-2,0.E0));
#335=DIRECTION('',(-8.715574274766E-2,9.961946980917E-1,0.E0));
#336=AXIS2_PLACEMENT_3D('',#333,#334,#335);
#337=PLANE('',#336);
#338=ORIENTED_EDGE('',*,*,#323,.F.);
#339=ORIENTED_EDGE('',*,*,#269,.T.);
#341=ORIENTED_EDGE('',*,*,#340,.T.);
#343=ORIENTED_EDGE('',*,*,#342,.F.);
#344=EDGE_LOOP('',(#338,#339,#341,#343));
#345=FACE_OUTER_BOUND('',#344,.F.);
#346=ADVANCED_FACE('',(#345),#337,.T.);
#347=CARTESIAN_POINT('',(3.722510064779E1,2.89E1,6.7144E0));
#348=DIRECTION('',(0.E0,0.E0,-1.E0));
#349=DIRECTION('',(0.E0,1.E0,0.E0));
#350=AXIS2_PLACEMENT_3D('',#347,#348,#349);
#351=CYLINDRICAL_SURFACE('',#350,3.E-1);
#353=ORIENTED_EDGE('',*,*,#352,.T.);
#354=ORIENTED_EDGE('',*,*,#340,.F.);
#355=ORIENTED_EDGE('',*,*,#267,.T.);
#357=ORIENTED_EDGE('',*,*,#356,.T.);
#358=EDGE_LOOP('',(#353,#354,#355,#357));
#359=FACE_OUTER_BOUND('',#358,.F.);
#360=ADVANCED_FACE('',(#359),#351,.T.);
#361=CARTESIAN_POINT('',(0.E0,0.E0,0.E0));
#362=DIRECTION('',(0.E0,0.E0,1.E0));
#363=DIRECTION('',(1.E0,0.E0,0.E0));
#364=AXIS2_PLACEMENT_3D('',#361,#362,#363);
#365=PLANE('',#364);
#366=ORIENTED_EDGE('',*,*,#325,.T.);
#367=ORIENTED_EDGE('',*,*,#342,.T.);
#368=ORIENTED_EDGE('',*,*,#352,.F.);
#370=ORIENTED_EDGE('',*,*,#369,.T.);
#372=ORIENTED_EDGE('',*,*,#371,.F.);
#374=ORIENTED_EDGE('',*,*,#373,.T.);
#376=ORIENTED_EDGE('',*,*,#375,.T.);
#378=ORIENTED_EDGE('',*,*,#377,.T.);
#380=ORIENTED_EDGE('',*,*,#379,.F.);
#382=ORIENTED_EDGE('',*,*,#381,.T.);
#384=ORIENTED_EDGE('',*,*,#383,.F.);
#386=ORIENTED_EDGE('',*,*,#385,.T.);
#387=EDGE_LOOP('',(#366,#367,#368,#370,#372,#374,#376,#378,#380,#382,#384,
#386));
#388=FACE_OUTER_BOUND('',#387,.F.);
#389=ADVANCED_FACE('',(#388),#365,.F.);
#390=CARTESIAN_POINT('',(3.75E1,2.92E1,0.E0));
#391=DIRECTION('',(0.E0,1.E0,0.E0));
#392=DIRECTION('',(-1.E0,0.E0,0.E0));
#393=AXIS2_PLACEMENT_3D('',#390,#391,#392);
#394=PLANE('',#393);
#395=ORIENTED_EDGE('',*,*,#356,.F.);
#396=ORIENTED_EDGE('',*,*,#265,.T.);
#398=ORIENTED_EDGE('',*,*,#397,.T.);
#399=ORIENTED_EDGE('',*,*,#369,.F.);
#400=EDGE_LOOP('',(#395,#396,#398,#399));
#401=FACE_OUTER_BOUND('',#400,.F.);
#402=ADVANCED_FACE('',(#401),#394,.T.);
#403=CARTESIAN_POINT('',(-3.722510064779E1,2.89E1,6.7144E0));
#404=DIRECTION('',(0.E0,0.E0,-1.E0));
#405=DIRECTION('',(-9.961946980917E-1,8.715574274766E-2,0.E0));
#406=AXIS2_PLACEMENT_3D('',#403,#404,#405);
#407=CYLINDRICAL_SURFACE('',#406,3.E-1);
#408=ORIENTED_EDGE('',*,*,#371,.T.);
#409=ORIENTED_EDGE('',*,*,#397,.F.);
#410=ORIENTED_EDGE('',*,*,#263,.T.);
#412=ORIENTED_EDGE('',*,*,#411,.T.);
#413=EDGE_LOOP('',(#408,#409,#410,#412));
#414=FACE_OUTER_BOUND('',#413,.F.);
#415=ADVANCED_FACE('',(#414),#407,.T.);
#416=CARTESIAN_POINT('',(-3.75E1,2.92E1,0.E0));
#417=DIRECTION('',(-9.961946980917E-1,8.715574274766E-2,0.E0));
#418=DIRECTION('',(-8.715574274766E-2,-9.961946980917E-1,0.E0));
#419=AXIS2_PLACEMENT_3D('',#416,#417,#418);
#420=PLANE('',#419);
#421=ORIENTED_EDGE('',*,*,#411,.F.);
#422=ORIENTED_EDGE('',*,*,#261,.T.);
#424=ORIENTED_EDGE('',*,*,#423,.T.);
#425=ORIENTED_EDGE('',*,*,#373,.F.);
#426=EDGE_LOOP('',(#421,#422,#424,#425));
#427=FACE_OUTER_BOUND('',#426,.F.);
#428=ADVANCED_FACE('',(#427),#420,.T.);
#429=CARTESIAN_POINT('',(-3.82E1,1.775684941437E1,6.7144E0));
#430=DIRECTION('',(0.E0,0.E0,-1.E0));
#431=DIRECTION('',(-1.E0,0.E0,0.E0));
#432=AXIS2_PLACEMENT_3D('',#429,#430,#431);
#433=CYLINDRICAL_SURFACE('',#432,3.E-1);
#435=ORIENTED_EDGE('',*,*,#434,.T.);
#436=ORIENTED_EDGE('',*,*,#375,.F.);
#437=ORIENTED_EDGE('',*,*,#423,.F.);
#438=ORIENTED_EDGE('',*,*,#259,.F.);
#439=EDGE_LOOP('',(#435,#436,#437,#438));
#440=FACE_OUTER_BOUND('',#439,.F.);
#441=ADVANCED_FACE('',(#440),#433,.T.);
#442=CARTESIAN_POINT('',(-3.85E1,1.776994769724E1,0.E0));
#443=DIRECTION('',(-1.E0,0.E0,0.E0));
#444=DIRECTION('',(0.E0,-1.E0,0.E0));
#445=AXIS2_PLACEMENT_3D('',#442,#443,#444);
#446=PLANE('',#445);
#447=ORIENTED_EDGE('',*,*,#434,.F.);
#448=ORIENTED_EDGE('',*,*,#257,.T.);
#450=ORIENTED_EDGE('',*,*,#449,.T.);
#451=ORIENTED_EDGE('',*,*,#377,.F.);
#452=EDGE_LOOP('',(#447,#448,#450,#451));
#453=FACE_OUTER_BOUND('',#452,.F.);
#454=ADVANCED_FACE('',(#453),#446,.T.);
#455=CARTESIAN_POINT('',(-3.82E1,8.E-1,6.7144E0));
#456=DIRECTION('',(0.E0,0.E0,-1.E0));
#457=DIRECTION('',(0.E0,-1.E0,0.E0));
#458=AXIS2_PLACEMENT_3D('',#455,#456,#457);
#459=CYLINDRICAL_SURFACE('',#458,3.E-1);
#460=ORIENTED_EDGE('',*,*,#379,.T.);
#461=ORIENTED_EDGE('',*,*,#449,.F.);
#462=ORIENTED_EDGE('',*,*,#255,.T.);
#464=ORIENTED_EDGE('',*,*,#463,.T.);
#465=EDGE_LOOP('',(#460,#461,#462,#464));
#466=FACE_OUTER_BOUND('',#465,.F.);
#467=ADVANCED_FACE('',(#466),#459,.T.);
#468=CARTESIAN_POINT('',(-3.85E1,5.E-1,0.E0));
#469=DIRECTION('',(0.E0,-1.E0,0.E0));
#470=DIRECTION('',(1.E0,0.E0,0.E0));
#471=AXIS2_PLACEMENT_3D('',#468,#469,#470);
#472=PLANE('',#471);
#473=ORIENTED_EDGE('',*,*,#463,.F.);
#474=ORIENTED_EDGE('',*,*,#253,.T.);
#476=ORIENTED_EDGE('',*,*,#475,.T.);
#477=ORIENTED_EDGE('',*,*,#381,.F.);
#478=EDGE_LOOP('',(#473,#474,#476,#477));
#479=FACE_OUTER_BOUND('',#478,.F.);
#480=ADVANCED_FACE('',(#479),#472,.T.);
#481=CARTESIAN_POINT('',(3.82E1,8.E-1,6.7144E0));
#482=DIRECTION('',(0.E0,0.E0,-1.E0));
#483=DIRECTION('',(1.E0,0.E0,0.E0));
#484=AXIS2_PLACEMENT_3D('',#481,#482,#483);
#485=CYLINDRICAL_SURFACE('',#484,3.E-1);
#486=ORIENTED_EDGE('',*,*,#383,.T.);
#487=ORIENTED_EDGE('',*,*,#475,.F.);
#488=ORIENTED_EDGE('',*,*,#251,.T.);
#490=ORIENTED_EDGE('',*,*,#489,.T.);
#491=EDGE_LOOP('',(#486,#487,#488,#490));
#492=FACE_OUTER_BOUND('',#491,.F.);
#493=ADVANCED_FACE('',(#492),#485,.T.);
#494=CARTESIAN_POINT('',(3.85E1,5.E-1,0.E0));
#495=DIRECTION('',(1.E0,0.E0,0.E0));
#496=DIRECTION('',(0.E0,1.E0,0.E0));
#497=AXIS2_PLACEMENT_3D('',#494,#495,#496);
#498=PLANE('',#497);
#499=ORIENTED_EDGE('',*,*,#327,.T.);
#500=ORIENTED_EDGE('',*,*,#385,.F.);
#501=ORIENTED_EDGE('',*,*,#489,.F.);
#502=ORIENTED_EDGE('',*,*,#249,.T.);
#503=EDGE_LOOP('',(#499,#500,#501,#502));
#504=FACE_OUTER_BOUND('',#503,.F.);
#505=ADVANCED_FACE('',(#504),#498,.T.);
#506=CLOSED_SHELL('',(#279,#294,#305,#317,#332,#346,#360,#389,#402,#415,#428,
#441,#454,#467,#480,#493,#505));
#507=MANIFOLD_SOLID_BREP('',#506);
#509=DIMENSIONAL_EXPONENTS(0.E0,0.E0,0.E0,0.E0,0.E0,0.E0,0.E0);
#511=PLANE_ANGLE_MEASURE_WITH_UNIT(PLANE_ANGLE_MEASURE(1.745329251994E-2),#510);
#512=(CONVERSION_BASED_UNIT('DEGREE',#511)NAMED_UNIT(*)PLANE_ANGLE_UNIT());
#514=UNCERTAINTY_MEASURE_WITH_UNIT(LENGTH_MEASURE(1.2E-3),#508,'closure',
'Maximum model space distance between geometric entities at asserted connectivities');
#515=(GEOMETRIC_REPRESENTATION_CONTEXT(3)GLOBAL_UNCERTAINTY_ASSIGNED_CONTEXT((
#514))GLOBAL_UNIT_ASSIGNED_CONTEXT((#508,#512,#513))REPRESENTATION_CONTEXT
('ID1','3'));
#517=APPLICATION_CONTEXT(
'CONFIGURATION CONTROLLED 3D DESIGNS OF MECHANICAL PARTS AND ASSEMBLIES');
#518=APPLICATION_PROTOCOL_DEFINITION('international standard',
'config_control_design',1994,#517);
#519=DESIGN_CONTEXT('',#517,'design');
#520=MECHANICAL_CONTEXT('',#517,'mechanical');
#521=PRODUCT('27108_PAP4_4A','27108_PAP4_4A','NOT SPECIFIED',(#520));
#522=PRODUCT_DEFINITION_FORMATION_WITH_SPECIFIED_SOURCE('173','LAST_VERSION',
#521,.MADE.);
#526=PRODUCT_CATEGORY('part','');
#527=PRODUCT_RELATED_PRODUCT_CATEGORY('detail','',(#521));
#528=PRODUCT_CATEGORY_RELATIONSHIP('','',#526,#527);
#529=SECURITY_CLASSIFICATION_LEVEL('unclassified');
#530=SECURITY_CLASSIFICATION('','',#529);
#531=CC_DESIGN_SECURITY_CLASSIFICATION(#530,(#522));
#532=APPROVAL_STATUS('approved');
#533=APPROVAL(#532,'');
#534=CC_DESIGN_APPROVAL(#533,(#530,#522,#523));
#535=CALENDAR_DATE(119,18,7);
#536=COORDINATED_UNIVERSAL_TIME_OFFSET(2,0,.AHEAD.);
#537=LOCAL_TIME(6,57,2.2E1,#536);
#538=DATE_AND_TIME(#535,#537);
#539=APPROVAL_DATE_TIME(#538,#533);
#540=DATE_TIME_ROLE('creation_date');
#541=CC_DESIGN_DATE_AND_TIME_ASSIGNMENT(#538,#540,(#523));
#542=DATE_TIME_ROLE('classification_date');
#543=CC_DESIGN_DATE_AND_TIME_ASSIGNMENT(#538,#542,(#530));
#544=PERSON('UNSPECIFIED','UNSPECIFIED',$,$,$,$);
#545=ORGANIZATION('UNSPECIFIED','UNSPECIFIED','UNSPECIFIED');
#546=PERSON_AND_ORGANIZATION(#544,#545);
#547=APPROVAL_ROLE('approver');
#548=APPROVAL_PERSON_ORGANIZATION(#546,#533,#547);
#549=PERSON_AND_ORGANIZATION_ROLE('creator');
#550=CC_DESIGN_PERSON_AND_ORGANIZATION_ASSIGNMENT(#546,#549,(#522,#523));
#551=PERSON_AND_ORGANIZATION_ROLE('design_supplier');
#552=CC_DESIGN_PERSON_AND_ORGANIZATION_ASSIGNMENT(#546,#551,(#522));
#553=PERSON_AND_ORGANIZATION_ROLE('classification_officer');
#554=CC_DESIGN_PERSON_AND_ORGANIZATION_ASSIGNMENT(#546,#553,(#530));
#555=PERSON_AND_ORGANIZATION_ROLE('design_owner');
#556=CC_DESIGN_PERSON_AND_ORGANIZATION_ASSIGNMENT(#546,#555,(#521));
#6=CIRCLE('',#5,2.E0);
#11=CIRCLE('',#10,2.E0);
#16=CIRCLE('',#15,3.E-1);
#25=CIRCLE('',#24,3.E-1);
#34=CIRCLE('',#33,3.E-1);
#43=CIRCLE('',#42,3.E-1);
#52=CIRCLE('',#51,3.E-1);
#61=CIRCLE('',#60,3.E-1);
#74=CIRCLE('',#73,1.5E0);
#79=CIRCLE('',#78,1.5E0);
#96=CIRCLE('',#95,3.E-1);
#105=CIRCLE('',#104,3.E-1);
#114=CIRCLE('',#113,3.E-1);
#123=CIRCLE('',#122,3.E-1);
#132=CIRCLE('',#131,3.E-1);
#141=CIRCLE('',#140,3.E-1);
#247=EDGE_CURVE('',#188,#193,#16,.T.);
#249=EDGE_CURVE('',#233,#193,#20,.T.);
#251=EDGE_CURVE('',#231,#233,#25,.T.);
#253=EDGE_CURVE('',#225,#231,#29,.T.);
#255=EDGE_CURVE('',#223,#225,#34,.T.);
#257=EDGE_CURVE('',#212,#223,#38,.T.);
#259=EDGE_CURVE('',#212,#217,#43,.T.);
#261=EDGE_CURVE('',#209,#217,#47,.T.);
#263=EDGE_CURVE('',#207,#209,#52,.T.);
#265=EDGE_CURVE('',#201,#207,#56,.T.);
#267=EDGE_CURVE('',#199,#201,#61,.T.);
#269=EDGE_CURVE('',#188,#199,#65,.T.);
#273=EDGE_CURVE('',#240,#241,#6,.T.);
#275=EDGE_CURVE('',#241,#240,#11,.T.);
#285=EDGE_CURVE('',#236,#237,#74,.T.);
#287=EDGE_CURVE('',#236,#240,#69,.T.);
#290=EDGE_CURVE('',#237,#241,#83,.T.);
#301=EDGE_CURVE('',#237,#236,#79,.T.);
#323=EDGE_CURVE('',#188,#189,#87,.T.);
#325=EDGE_CURVE('',#191,#189,#96,.T.);
#327=EDGE_CURVE('',#193,#191,#181,.T.);
#340=EDGE_CURVE('',#199,#197,#91,.T.);
#342=EDGE_CURVE('',#189,#197,#100,.T.);
#352=EDGE_CURVE('',#196,#197,#105,.T.);
#356=EDGE_CURVE('',#201,#196,#149,.T.);
#369=EDGE_CURVE('',#196,#205,#109,.T.);
#371=EDGE_CURVE('',#204,#205,#114,.T.);
#373=EDGE_CURVE('',#204,#215,#118,.T.);
#375=EDGE_CURVE('',#215,#213,#123,.T.);
#377=EDGE_CURVE('',#213,#221,#127,.T.);
#379=EDGE_CURVE('',#220,#221,#132,.T.);
#381=EDGE_CURVE('',#220,#229,#136,.T.);
#383=EDGE_CURVE('',#228,#229,#141,.T.);
#385=EDGE_CURVE('',#228,#191,#145,.T.);
#397=EDGE_CURVE('',#207,#205,#153,.T.);
#411=EDGE_CURVE('',#209,#204,#157,.T.);
#423=EDGE_CURVE('',#217,#215,#161,.T.);
#434=EDGE_CURVE('',#212,#213,#165,.T.);
#449=EDGE_CURVE('',#223,#221,#169,.T.);
#463=EDGE_CURVE('',#225,#220,#173,.T.);
#475=EDGE_CURVE('',#231,#229,#177,.T.);
#489=EDGE_CURVE('',#233,#228,#185,.T.);
#508=(LENGTH_UNIT()NAMED_UNIT(*)SI_UNIT(.MILLI.,.METRE.));
#510=(NAMED_UNIT(*)PLANE_ANGLE_UNIT()SI_UNIT($,.RADIAN.));
#513=(NAMED_UNIT(*)SI_UNIT($,.STERADIAN.)SOLID_ANGLE_UNIT());
#516=ADVANCED_BREP_SHAPE_REPRESENTATION('',(#507),#515);
#523=PRODUCT_DEFINITION('design','',#522,#519);
#524=PRODUCT_DEFINITION_SHAPE('','SHAPE FOR 27108_PAP4_4A.',#523);
#525=SHAPE_DEFINITION_REPRESENTATION(#524,#516);
ENDSEC;
END-ISO-10303-21;
