ISO-10303-21;
HEADER;
/* Generated by software containing ST-Developer
 * from STEP Tools, Inc. (www.steptools.com) 
 */
/* OPTION: using custom schema-name function */

FILE_DESCRIPTION(
/* description */ (''),
/* implementation_level */ '2;1');

FILE_NAME(
/* name */ 'qs3_35.stp',
/* time_stamp */ '2018-06-07T10:20:03+02:00',
/* author */ (''),
/* organization */ (''),
/* preprocessor_version */ 'ST-DEVELOPER v16',
/* originating_system */ 'SIEMENS PLM Software NX 10.0',
/* authorisation */ '');

FILE_SCHEMA (('AP203_CONFIGURATION_CONTROLLED_3D_DESIGN_OF_MECHANICAL_PARTS_AND_ASSEMBLIES_MIM_LF { 1 0 10303 403 2 1 2}'));
ENDSEC;

DATA;
#10=PROPERTY_DEFINITION_REPRESENTATION(#14,#12);
#11=PROPERTY_DEFINITION_REPRESENTATION(#15,#13);
#12=REPRESENTATION('',(#16),#489);
#13=REPRESENTATION('',(#17),#489);
#14=PROPERTY_DEFINITION('pmi validation property','',#89);
#15=PROPERTY_DEFINITION('pmi validation property','',#89);
#16=VALUE_REPRESENTATION_ITEM('number of annotations',COUNT_MEASURE(0.));
#17=VALUE_REPRESENTATION_ITEM('number of views',COUNT_MEASURE(0.));
#18=SHAPE_REPRESENTATION_RELATIONSHIP('None',
'relationship between scho15CCDB67y122-None and scho15CCDB67y122-None',
#100,#19);
#19=ADVANCED_BREP_SHAPE_REPRESENTATION('scho15CCDB67y122-None',(#101),#489);
#20=CC_DESIGN_APPROVAL(#32,(#90));
#21=CC_DESIGN_APPROVAL(#33,(#92));
#22=CC_DESIGN_APPROVAL(#34,(#39));
#23=APPROVAL_PERSON_ORGANIZATION(#77,#32,#26);
#24=APPROVAL_PERSON_ORGANIZATION(#78,#33,#27);
#25=APPROVAL_PERSON_ORGANIZATION(#79,#34,#28);
#26=APPROVAL_ROLE('approver');
#27=APPROVAL_ROLE('approver');
#28=APPROVAL_ROLE('approver');
#29=APPROVAL_DATE_TIME(#47,#32);
#30=APPROVAL_DATE_TIME(#48,#33);
#31=APPROVAL_DATE_TIME(#49,#34);
#32=APPROVAL(#35,' ');
#33=APPROVAL(#36,' ');
#34=APPROVAL(#37,' ');
#35=APPROVAL_STATUS('not_yet_approved');
#36=APPROVAL_STATUS('not_yet_approved');
#37=APPROVAL_STATUS('not_yet_approved');
#38=CC_DESIGN_SECURITY_CLASSIFICATION(#39,(#92));
#39=SECURITY_CLASSIFICATION(' ',' ',#40);
#40=SECURITY_CLASSIFICATION_LEVEL('confidential');
#41=CC_DESIGN_DATE_AND_TIME_ASSIGNMENT(#45,#43,(#90));
#42=CC_DESIGN_DATE_AND_TIME_ASSIGNMENT(#46,#44,(#39));
#43=DATE_TIME_ROLE('creation_date');
#44=DATE_TIME_ROLE('classification_date');
#45=DATE_AND_TIME(#60,#50);
#46=DATE_AND_TIME(#61,#51);
#47=DATE_AND_TIME(#62,#52);
#48=DATE_AND_TIME(#63,#53);
#49=DATE_AND_TIME(#64,#54);
#50=LOCAL_TIME(0,0,0.,#55);
#51=LOCAL_TIME(0,0,0.,#56);
#52=LOCAL_TIME(0,0,0.,#57);
#53=LOCAL_TIME(0,0,0.,#58);
#54=LOCAL_TIME(0,0,0.,#59);
#55=COORDINATED_UNIVERSAL_TIME_OFFSET(0,0,.BEHIND.);
#56=COORDINATED_UNIVERSAL_TIME_OFFSET(0,0,.BEHIND.);
#57=COORDINATED_UNIVERSAL_TIME_OFFSET(0,0,.BEHIND.);
#58=COORDINATED_UNIVERSAL_TIME_OFFSET(0,0,.BEHIND.);
#59=COORDINATED_UNIVERSAL_TIME_OFFSET(0,0,.BEHIND.);
#60=CALENDAR_DATE(0,1,1);
#61=CALENDAR_DATE(0,1,1);
#62=CALENDAR_DATE(0,1,1);
#63=CALENDAR_DATE(0,1,1);
#64=CALENDAR_DATE(0,1,1);
#65=CC_DESIGN_PERSON_AND_ORGANIZATION_ASSIGNMENT(#73,#69,(#90,#92));
#66=CC_DESIGN_PERSON_AND_ORGANIZATION_ASSIGNMENT(#74,#70,(#94));
#67=CC_DESIGN_PERSON_AND_ORGANIZATION_ASSIGNMENT(#75,#71,(#92));
#68=CC_DESIGN_PERSON_AND_ORGANIZATION_ASSIGNMENT(#76,#72,(#39));
#69=PERSON_AND_ORGANIZATION_ROLE('creator');
#70=PERSON_AND_ORGANIZATION_ROLE('design_owner');
#71=PERSON_AND_ORGANIZATION_ROLE('design_supplier');
#72=PERSON_AND_ORGANIZATION_ROLE('classification_officer');
#73=PERSON_AND_ORGANIZATION(#87,#80);
#74=PERSON_AND_ORGANIZATION(#87,#81);
#75=PERSON_AND_ORGANIZATION(#87,#82);
#76=PERSON_AND_ORGANIZATION(#87,#83);
#77=PERSON_AND_ORGANIZATION(#87,#84);
#78=PERSON_AND_ORGANIZATION(#87,#85);
#79=PERSON_AND_ORGANIZATION(#87,#86);
#80=ORGANIZATION(' ',' ',' ');
#81=ORGANIZATION(' ',' ',' ');
#82=ORGANIZATION(' ',' ',' ');
#83=ORGANIZATION(' ',' ',' ');
#84=ORGANIZATION(' ',' ',' ');
#85=ORGANIZATION(' ',' ',' ');
#86=ORGANIZATION(' ',' ',' ');
#87=PERSON(' ',' ',' ',(' '),$,$);
#88=SHAPE_DEFINITION_REPRESENTATION(#89,#100);
#89=PRODUCT_DEFINITION_SHAPE('','',#90);
#90=PRODUCT_DEFINITION(' ','',#92,#91);
#91=DESIGN_CONTEXT('',#99,'design');
#92=PRODUCT_DEFINITION_FORMATION_WITH_SPECIFIED_SOURCE(' ',' ',#94,
 .NOT_KNOWN.);
#93=PRODUCT_RELATED_PRODUCT_CATEGORY('detail','',(#94));
#94=PRODUCT('scho15CCDB67y122','scho15CCDB67y122',' ',(#97));
#95=PRODUCT_CATEGORY('part',' ');
#96=PRODUCT_CATEGORY(' ','');
#97=MECHANICAL_CONTEXT(' ',#99,'mechanical');
#98=APPLICATION_PROTOCOL_DEFINITION('international standard',
'config_control_design',2010,#99);
#99=APPLICATION_CONTEXT(
'configuration controlled 3D designs of mechanical parts and assemblie
s');
#100=SHAPE_REPRESENTATION('scho15CCDB67y122-None',(#339),#489);
#101=MANIFOLD_SOLID_BREP('',#102);
#102=CLOSED_SHELL('',(#126,#127,#128,#129,#130,#131,#132,#133,#134,#135,
#136,#137,#138));
#103=CYLINDRICAL_SURFACE('',#352,3.3);
#104=CYLINDRICAL_SURFACE('',#353,3.25);
#105=CYLINDRICAL_SURFACE('',#354,3.3);
#106=FACE_BOUND('',#158,.T.);
#107=FACE_BOUND('',#159,.T.);
#108=FACE_BOUND('',#160,.T.);
#109=FACE_BOUND('',#161,.T.);
#110=FACE_BOUND('',#163,.T.);
#111=FACE_BOUND('',#164,.T.);
#112=FACE_BOUND('',#165,.T.);
#113=FACE_BOUND('',#166,.T.);
#114=FACE_BOUND('',#169,.T.);
#115=FACE_BOUND('',#170,.T.);
#116=FACE_BOUND('',#171,.T.);
#117=FACE_BOUND('',#172,.T.);
#118=FACE_BOUND('',#173,.T.);
#119=FACE_BOUND('',#174,.T.);
#120=CIRCLE('',#341,3.3);
#121=CIRCLE('',#342,3.25);
#122=CIRCLE('',#343,3.3);
#123=CIRCLE('',#346,3.3);
#124=CIRCLE('',#347,3.25);
#125=CIRCLE('',#348,3.3);
#126=ADVANCED_FACE('',(#149),#139,.T.);
#127=ADVANCED_FACE('',(#106,#107,#108,#109),#140,.T.);
#128=ADVANCED_FACE('',(#150),#141,.T.);
#129=ADVANCED_FACE('',(#110,#111,#112,#113),#142,.T.);
#130=ADVANCED_FACE('',(#151),#143,.T.);
#131=ADVANCED_FACE('',(#152),#144,.T.);
#132=ADVANCED_FACE('',(#114,#115),#103,.F.);
#133=ADVANCED_FACE('',(#116,#117),#104,.F.);
#134=ADVANCED_FACE('',(#118,#119),#105,.F.);
#135=ADVANCED_FACE('',(#153),#145,.F.);
#136=ADVANCED_FACE('',(#154),#146,.F.);
#137=ADVANCED_FACE('',(#155),#147,.F.);
#138=ADVANCED_FACE('',(#156),#148,.F.);
#139=PLANE('',#340);
#140=PLANE('',#344);
#141=PLANE('',#345);
#142=PLANE('',#349);
#143=PLANE('',#350);
#144=PLANE('',#351);
#145=PLANE('',#355);
#146=PLANE('',#356);
#147=PLANE('',#357);
#148=PLANE('',#358);
#149=FACE_OUTER_BOUND('',#157,.T.);
#150=FACE_OUTER_BOUND('',#162,.T.);
#151=FACE_OUTER_BOUND('',#167,.T.);
#152=FACE_OUTER_BOUND('',#168,.T.);
#153=FACE_OUTER_BOUND('',#175,.T.);
#154=FACE_OUTER_BOUND('',#176,.T.);
#155=FACE_OUTER_BOUND('',#177,.T.);
#156=FACE_OUTER_BOUND('',#178,.T.);
#157=EDGE_LOOP('',(#179,#180,#181,#182));
#158=EDGE_LOOP('',(#183));
#159=EDGE_LOOP('',(#184));
#160=EDGE_LOOP('',(#185));
#161=EDGE_LOOP('',(#186,#187,#188,#189));
#162=EDGE_LOOP('',(#190,#191,#192,#193,#194,#195,#196,#197));
#163=EDGE_LOOP('',(#198));
#164=EDGE_LOOP('',(#199));
#165=EDGE_LOOP('',(#200));
#166=EDGE_LOOP('',(#201,#202,#203,#204));
#167=EDGE_LOOP('',(#205,#206,#207,#208));
#168=EDGE_LOOP('',(#209,#210,#211,#212,#213,#214,#215,#216));
#169=EDGE_LOOP('',(#217));
#170=EDGE_LOOP('',(#218));
#171=EDGE_LOOP('',(#219));
#172=EDGE_LOOP('',(#220));
#173=EDGE_LOOP('',(#221));
#174=EDGE_LOOP('',(#222));
#175=EDGE_LOOP('',(#223,#224,#225,#226));
#176=EDGE_LOOP('',(#227,#228,#229,#230));
#177=EDGE_LOOP('',(#231,#232,#233,#234));
#178=EDGE_LOOP('',(#235,#236,#237,#238));
#179=ORIENTED_EDGE('',*,*,#261,.F.);
#180=ORIENTED_EDGE('',*,*,#262,.T.);
#181=ORIENTED_EDGE('',*,*,#263,.F.);
#182=ORIENTED_EDGE('',*,*,#264,.T.);
#183=ORIENTED_EDGE('',*,*,#265,.T.);
#184=ORIENTED_EDGE('',*,*,#266,.T.);
#185=ORIENTED_EDGE('',*,*,#267,.T.);
#186=ORIENTED_EDGE('',*,*,#268,.T.);
#187=ORIENTED_EDGE('',*,*,#269,.T.);
#188=ORIENTED_EDGE('',*,*,#270,.F.);
#189=ORIENTED_EDGE('',*,*,#271,.T.);
#190=ORIENTED_EDGE('',*,*,#270,.T.);
#191=ORIENTED_EDGE('',*,*,#272,.T.);
#192=ORIENTED_EDGE('',*,*,#261,.T.);
#193=ORIENTED_EDGE('',*,*,#273,.T.);
#194=ORIENTED_EDGE('',*,*,#274,.F.);
#195=ORIENTED_EDGE('',*,*,#275,.T.);
#196=ORIENTED_EDGE('',*,*,#276,.T.);
#197=ORIENTED_EDGE('',*,*,#277,.T.);
#198=ORIENTED_EDGE('',*,*,#278,.T.);
#199=ORIENTED_EDGE('',*,*,#279,.T.);
#200=ORIENTED_EDGE('',*,*,#280,.T.);
#201=ORIENTED_EDGE('',*,*,#274,.T.);
#202=ORIENTED_EDGE('',*,*,#281,.T.);
#203=ORIENTED_EDGE('',*,*,#282,.F.);
#204=ORIENTED_EDGE('',*,*,#283,.T.);
#205=ORIENTED_EDGE('',*,*,#284,.F.);
#206=ORIENTED_EDGE('',*,*,#285,.T.);
#207=ORIENTED_EDGE('',*,*,#276,.F.);
#208=ORIENTED_EDGE('',*,*,#286,.T.);
#209=ORIENTED_EDGE('',*,*,#263,.T.);
#210=ORIENTED_EDGE('',*,*,#287,.T.);
#211=ORIENTED_EDGE('',*,*,#268,.F.);
#212=ORIENTED_EDGE('',*,*,#288,.T.);
#213=ORIENTED_EDGE('',*,*,#284,.T.);
#214=ORIENTED_EDGE('',*,*,#289,.T.);
#215=ORIENTED_EDGE('',*,*,#282,.T.);
#216=ORIENTED_EDGE('',*,*,#290,.T.);
#217=ORIENTED_EDGE('',*,*,#280,.F.);
#218=ORIENTED_EDGE('',*,*,#267,.F.);
#219=ORIENTED_EDGE('',*,*,#279,.F.);
#220=ORIENTED_EDGE('',*,*,#266,.F.);
#221=ORIENTED_EDGE('',*,*,#278,.F.);
#222=ORIENTED_EDGE('',*,*,#265,.F.);
#223=ORIENTED_EDGE('',*,*,#287,.F.);
#224=ORIENTED_EDGE('',*,*,#262,.F.);
#225=ORIENTED_EDGE('',*,*,#272,.F.);
#226=ORIENTED_EDGE('',*,*,#269,.F.);
#227=ORIENTED_EDGE('',*,*,#273,.F.);
#228=ORIENTED_EDGE('',*,*,#264,.F.);
#229=ORIENTED_EDGE('',*,*,#290,.F.);
#230=ORIENTED_EDGE('',*,*,#281,.F.);
#231=ORIENTED_EDGE('',*,*,#277,.F.);
#232=ORIENTED_EDGE('',*,*,#285,.F.);
#233=ORIENTED_EDGE('',*,*,#288,.F.);
#234=ORIENTED_EDGE('',*,*,#271,.F.);
#235=ORIENTED_EDGE('',*,*,#289,.F.);
#236=ORIENTED_EDGE('',*,*,#286,.F.);
#237=ORIENTED_EDGE('',*,*,#275,.F.);
#238=ORIENTED_EDGE('',*,*,#283,.F.);
#239=VERTEX_POINT('',#425);
#240=VERTEX_POINT('',#426);
#241=VERTEX_POINT('',#428);
#242=VERTEX_POINT('',#430);
#243=VERTEX_POINT('',#434);
#244=VERTEX_POINT('',#436);
#245=VERTEX_POINT('',#438);
#246=VERTEX_POINT('',#440);
#247=VERTEX_POINT('',#441);
#248=VERTEX_POINT('',#443);
#249=VERTEX_POINT('',#445);
#250=VERTEX_POINT('',#450);
#251=VERTEX_POINT('',#452);
#252=VERTEX_POINT('',#454);
#253=VERTEX_POINT('',#456);
#254=VERTEX_POINT('',#460);
#255=VERTEX_POINT('',#462);
#256=VERTEX_POINT('',#464);
#257=VERTEX_POINT('',#466);
#258=VERTEX_POINT('',#468);
#259=VERTEX_POINT('',#472);
#260=VERTEX_POINT('',#473);
#261=EDGE_CURVE('',#239,#240,#291,.T.);
#262=EDGE_CURVE('',#239,#241,#292,.T.);
#263=EDGE_CURVE('',#242,#241,#293,.T.);
#264=EDGE_CURVE('',#242,#240,#294,.T.);
#265=EDGE_CURVE('',#243,#243,#120,.T.);
#266=EDGE_CURVE('',#244,#244,#121,.T.);
#267=EDGE_CURVE('',#245,#245,#122,.T.);
#268=EDGE_CURVE('',#246,#247,#295,.T.);
#269=EDGE_CURVE('',#247,#248,#296,.T.);
#270=EDGE_CURVE('',#249,#248,#297,.T.);
#271=EDGE_CURVE('',#249,#246,#298,.T.);
#272=EDGE_CURVE('',#248,#239,#299,.T.);
#273=EDGE_CURVE('',#240,#250,#300,.T.);
#274=EDGE_CURVE('',#251,#250,#301,.T.);
#275=EDGE_CURVE('',#251,#252,#302,.T.);
#276=EDGE_CURVE('',#252,#253,#303,.T.);
#277=EDGE_CURVE('',#253,#249,#304,.T.);
#278=EDGE_CURVE('',#254,#254,#123,.T.);
#279=EDGE_CURVE('',#255,#255,#124,.T.);
#280=EDGE_CURVE('',#256,#256,#125,.T.);
#281=EDGE_CURVE('',#250,#257,#305,.T.);
#282=EDGE_CURVE('',#258,#257,#306,.T.);
#283=EDGE_CURVE('',#258,#251,#307,.T.);
#284=EDGE_CURVE('',#259,#260,#308,.T.);
#285=EDGE_CURVE('',#259,#253,#309,.T.);
#286=EDGE_CURVE('',#252,#260,#310,.T.);
#287=EDGE_CURVE('',#241,#247,#311,.T.);
#288=EDGE_CURVE('',#246,#259,#312,.T.);
#289=EDGE_CURVE('',#260,#258,#313,.T.);
#290=EDGE_CURVE('',#257,#242,#314,.T.);
#291=LINE('',#424,#315);
#292=LINE('',#427,#316);
#293=LINE('',#429,#317);
#294=LINE('',#431,#318);
#295=LINE('',#439,#319);
#296=LINE('',#442,#320);
#297=LINE('',#444,#321);
#298=LINE('',#446,#322);
#299=LINE('',#448,#323);
#300=LINE('',#449,#324);
#301=LINE('',#451,#325);
#302=LINE('',#453,#326);
#303=LINE('',#455,#327);
#304=LINE('',#457,#328);
#305=LINE('',#465,#329);
#306=LINE('',#467,#330);
#307=LINE('',#469,#331);
#308=LINE('',#471,#332);
#309=LINE('',#474,#333);
#310=LINE('',#475,#334);
#311=LINE('',#477,#335);
#312=LINE('',#478,#336);
#313=LINE('',#479,#337);
#314=LINE('',#480,#338);
#315=VECTOR('',#361,1.);
#316=VECTOR('',#362,1.);
#317=VECTOR('',#363,1.);
#318=VECTOR('',#364,1.);
#319=VECTOR('',#373,1.);
#320=VECTOR('',#374,1.);
#321=VECTOR('',#375,1.);
#322=VECTOR('',#376,1.);
#323=VECTOR('',#379,1.);
#324=VECTOR('',#380,1.);
#325=VECTOR('',#381,1.);
#326=VECTOR('',#382,1.);
#327=VECTOR('',#383,1.);
#328=VECTOR('',#384,1.);
#329=VECTOR('',#393,1.);
#330=VECTOR('',#394,1.);
#331=VECTOR('',#395,1.);
#332=VECTOR('',#398,1.);
#333=VECTOR('',#399,1.);
#334=VECTOR('',#400,1.);
#335=VECTOR('',#403,1.);
#336=VECTOR('',#404,1.);
#337=VECTOR('',#405,1.);
#338=VECTOR('',#406,1.);
#339=AXIS2_PLACEMENT_3D('',#423,#359,#360);
#340=AXIS2_PLACEMENT_3D('',#432,#365,#366);
#341=AXIS2_PLACEMENT_3D('',#433,#367,#368);
#342=AXIS2_PLACEMENT_3D('',#435,#369,#370);
#343=AXIS2_PLACEMENT_3D('',#437,#371,#372);
#344=AXIS2_PLACEMENT_3D('',#447,#377,#378);
#345=AXIS2_PLACEMENT_3D('',#458,#385,#386);
#346=AXIS2_PLACEMENT_3D('',#459,#387,#388);
#347=AXIS2_PLACEMENT_3D('',#461,#389,#390);
#348=AXIS2_PLACEMENT_3D('',#463,#391,#392);
#349=AXIS2_PLACEMENT_3D('',#470,#396,#397);
#350=AXIS2_PLACEMENT_3D('',#476,#401,#402);
#351=AXIS2_PLACEMENT_3D('',#481,#407,#408);
#352=AXIS2_PLACEMENT_3D('',#482,#409,#410);
#353=AXIS2_PLACEMENT_3D('',#483,#411,#412);
#354=AXIS2_PLACEMENT_3D('',#484,#413,#414);
#355=AXIS2_PLACEMENT_3D('',#485,#415,#416);
#356=AXIS2_PLACEMENT_3D('',#486,#417,#418);
#357=AXIS2_PLACEMENT_3D('',#487,#419,#420);
#358=AXIS2_PLACEMENT_3D('',#488,#421,#422);
#359=DIRECTION('',(0.,0.,1.));
#360=DIRECTION('',(1.,0.,0.));
#361=DIRECTION('',(0.,1.,0.));
#362=DIRECTION('',(1.,0.,0.));
#363=DIRECTION('',(0.,-1.,0.));
#364=DIRECTION('',(-1.,0.,0.));
#365=DIRECTION('',(0.,0.,1.));
#366=DIRECTION('',(1.,0.,0.));
#367=DIRECTION('',(0.,1.,0.));
#368=DIRECTION('',(0.,0.,1.));
#369=DIRECTION('',(0.,1.,0.));
#370=DIRECTION('',(0.,0.,1.));
#371=DIRECTION('',(0.,1.,0.));
#372=DIRECTION('',(0.,0.,1.));
#373=DIRECTION('',(0.,0.,1.));
#374=DIRECTION('',(-1.,0.,0.));
#375=DIRECTION('',(0.,0.,1.));
#376=DIRECTION('',(1.,0.,0.));
#377=DIRECTION('',(0.,-1.,0.));
#378=DIRECTION('',(0.,0.,-1.));
#379=DIRECTION('',(0.,0.707106781186547,0.707106781186548));
#380=DIRECTION('',(0.,0.707106781186547,-0.707106781186548));
#381=DIRECTION('',(0.,0.,1.));
#382=DIRECTION('',(0.,-0.707106781186547,-0.707106781186548));
#383=DIRECTION('',(0.,-1.,0.));
#384=DIRECTION('',(0.,-0.707106781186547,0.707106781186548));
#385=DIRECTION('',(-1.,0.,0.));
#386=DIRECTION('',(0.,0.,1.));
#387=DIRECTION('',(0.,-1.,0.));
#388=DIRECTION('',(0.,0.,-1.));
#389=DIRECTION('',(0.,-1.,0.));
#390=DIRECTION('',(0.,0.,-1.));
#391=DIRECTION('',(0.,-1.,0.));
#392=DIRECTION('',(0.,0.,-1.));
#393=DIRECTION('',(1.,0.,0.));
#394=DIRECTION('',(0.,0.,1.));
#395=DIRECTION('',(-1.,0.,0.));
#396=DIRECTION('',(0.,1.,0.));
#397=DIRECTION('',(0.,0.,1.));
#398=DIRECTION('',(0.,1.,0.));
#399=DIRECTION('',(-1.,0.,0.));
#400=DIRECTION('',(1.,0.,0.));
#401=DIRECTION('',(0.,0.,-1.));
#402=DIRECTION('',(-1.,0.,0.));
#403=DIRECTION('',(0.,-0.707106781186547,-0.707106781186548));
#404=DIRECTION('',(0.,0.707106781186547,-0.707106781186548));
#405=DIRECTION('',(0.,0.707106781186547,0.707106781186548));
#406=DIRECTION('',(0.,-0.707106781186547,0.707106781186548));
#407=DIRECTION('',(1.,0.,0.));
#408=DIRECTION('',(0.,0.,-1.));
#409=DIRECTION('',(0.,1.,0.));
#410=DIRECTION('',(0.,0.,1.));
#411=DIRECTION('',(0.,1.,0.));
#412=DIRECTION('',(0.,0.,1.));
#413=DIRECTION('',(0.,1.,0.));
#414=DIRECTION('',(0.,0.,1.));
#415=DIRECTION('',(0.,0.707106781186548,-0.707106781186547));
#416=DIRECTION('',(0.,0.707106781186547,0.707106781186548));
#417=DIRECTION('',(0.,-0.707106781186548,-0.707106781186547));
#418=DIRECTION('',(0.,0.707106781186547,-0.707106781186548));
#419=DIRECTION('',(0.,0.707106781186548,0.707106781186547));
#420=DIRECTION('',(0.,-0.707106781186547,0.707106781186548));
#421=DIRECTION('',(0.,-0.707106781186548,0.707106781186547));
#422=DIRECTION('',(0.,-0.707106781186547,-0.707106781186548));
#423=CARTESIAN_POINT('',(0.,0.,0.));
#424=CARTESIAN_POINT('',(-25.,2.,7.5));
#425=CARTESIAN_POINT('',(-25.,0.5,7.5));
#426=CARTESIAN_POINT('',(-25.,3.5,7.5));
#427=CARTESIAN_POINT('',(0.,0.5,7.5));
#428=CARTESIAN_POINT('',(25.,0.5,7.5));
#429=CARTESIAN_POINT('',(25.,2.,7.5));
#430=CARTESIAN_POINT('',(25.,3.5,7.5));
#431=CARTESIAN_POINT('',(0.,3.5,7.5));
#432=CARTESIAN_POINT('',(0.,2.,7.5));
#433=CARTESIAN_POINT('',(18.,0.,0.));
#434=CARTESIAN_POINT('',(18.,0.,3.3));
#435=CARTESIAN_POINT('',(0.,0.,0.));
#436=CARTESIAN_POINT('',(0.,0.,3.25));
#437=CARTESIAN_POINT('',(-18.,0.,0.));
#438=CARTESIAN_POINT('',(-18.,0.,3.3));
#439=CARTESIAN_POINT('',(25.,0.,-7.5));
#440=CARTESIAN_POINT('',(25.,-1.0842021724855E-16,-7.));
#441=CARTESIAN_POINT('',(25.,-4.33680868994202E-16,7.));
#442=CARTESIAN_POINT('',(0.,0.,7.));
#443=CARTESIAN_POINT('',(-25.,-4.33680868994202E-16,7.));
#444=CARTESIAN_POINT('',(-25.,0.,-7.5));
#445=CARTESIAN_POINT('',(-25.,-1.0842021724855E-16,-7.));
#446=CARTESIAN_POINT('',(0.,0.,-7.));
#447=CARTESIAN_POINT('',(0.,0.,-7.5));
#448=CARTESIAN_POINT('',(-25.,-6.25,0.749999999999994));
#449=CARTESIAN_POINT('',(-25.,10.25,0.749999999999994));
#450=CARTESIAN_POINT('',(-25.,4.,7.));
#451=CARTESIAN_POINT('',(-25.,4.,-7.5));
#452=CARTESIAN_POINT('',(-25.,4.,-7.));
#453=CARTESIAN_POINT('',(-25.,2.75,-8.25));
#454=CARTESIAN_POINT('',(-25.,3.5,-7.5));
#455=CARTESIAN_POINT('',(-25.,2.,-7.5));
#456=CARTESIAN_POINT('',(-25.,0.499999999999999,-7.5));
#457=CARTESIAN_POINT('',(-25.,1.25,-8.25));
#458=CARTESIAN_POINT('',(-25.,2.,-7.5));
#459=CARTESIAN_POINT('',(18.,4.,0.));
#460=CARTESIAN_POINT('',(18.,4.,-3.3));
#461=CARTESIAN_POINT('',(0.,4.,0.));
#462=CARTESIAN_POINT('',(0.,4.,-3.25));
#463=CARTESIAN_POINT('',(-18.,4.,0.));
#464=CARTESIAN_POINT('',(-18.,4.,-3.3));
#465=CARTESIAN_POINT('',(0.,4.,7.));
#466=CARTESIAN_POINT('',(25.,4.,7.));
#467=CARTESIAN_POINT('',(25.,4.,-7.5));
#468=CARTESIAN_POINT('',(25.,4.,-7.));
#469=CARTESIAN_POINT('',(0.,4.,-7.));
#470=CARTESIAN_POINT('',(0.,4.,-7.5));
#471=CARTESIAN_POINT('',(25.,2.,-7.5));
#472=CARTESIAN_POINT('',(25.,0.5,-7.5));
#473=CARTESIAN_POINT('',(25.,3.5,-7.5));
#474=CARTESIAN_POINT('',(0.,0.5,-7.5));
#475=CARTESIAN_POINT('',(0.,3.5,-7.5));
#476=CARTESIAN_POINT('',(0.,2.,-7.5));
#477=CARTESIAN_POINT('',(25.,-6.25,0.749999999999994));
#478=CARTESIAN_POINT('',(25.,1.25,-8.25));
#479=CARTESIAN_POINT('',(25.,2.75,-8.25));
#480=CARTESIAN_POINT('',(25.,10.25,0.749999999999994));
#481=CARTESIAN_POINT('',(25.,2.,-7.5));
#482=CARTESIAN_POINT('',(-18.,0.,0.));
#483=CARTESIAN_POINT('',(0.,0.,0.));
#484=CARTESIAN_POINT('',(18.,0.,0.));
#485=CARTESIAN_POINT('',(0.,0.,7.));
#486=CARTESIAN_POINT('',(0.,4.,7.));
#487=CARTESIAN_POINT('',(0.,0.,-7.));
#488=CARTESIAN_POINT('',(0.,4.,-7.));
#489=(
GEOMETRIC_REPRESENTATION_CONTEXT(3)
GLOBAL_UNCERTAINTY_ASSIGNED_CONTEXT((#490))
GLOBAL_UNIT_ASSIGNED_CONTEXT((#496,#492,#491))
REPRESENTATION_CONTEXT('qs3_35','TOP_LEVEL_ASSEMBLY_PART')
);
#490=UNCERTAINTY_MEASURE_WITH_UNIT(LENGTH_MEASURE(2.E-5),#496,
'DISTANCE_ACCURACY_VALUE','Maximum Tolerance applied to model');
#491=(
NAMED_UNIT(*)
SI_UNIT($,.STERADIAN.)
SOLID_ANGLE_UNIT()
);
#492=(
CONVERSION_BASED_UNIT('DEGREE',#494)
NAMED_UNIT(#493)
PLANE_ANGLE_UNIT()
);
#493=DIMENSIONAL_EXPONENTS(0.,0.,0.,0.,0.,0.,0.);
#494=PLANE_ANGLE_MEASURE_WITH_UNIT(PLANE_ANGLE_MEASURE(0.0174532925),#495);
#495=(
NAMED_UNIT(*)
PLANE_ANGLE_UNIT()
SI_UNIT($,.RADIAN.)
);
#496=(
LENGTH_UNIT()
NAMED_UNIT(*)
SI_UNIT(.MILLI.,.METRE.)
);
ENDSEC;
END-ISO-10303-21;
