ISO-10303-21;
HEADER;
FILE_DESCRIPTION( ( 'STEP AP203' ), '1' );
FILE_NAME( '17633_6_FDM_16.stp', '  ', ( '  ' ), ( '  ' ), 'PSStep 15.0.47', 'PARTsolutions', '  ' );
FILE_SCHEMA( ( 'CONFIG_CONTROL_DESIGN' ) );
ENDSEC;
DATA;
#1 = DESIGN_CONTEXT( '', #27, 'design' );
#2 = APPLICATION_PROTOCOL_DEFINITION( 'international standard', 'config_control_design', 1994, #27 );
#3 = PRODUCT_CATEGORY_RELATIONSHIP( 'NONE', 'NONE', #28, #29 );
#4 = DATE_AND_TIME( #30, #31 );
#5 = DATE_TIME_ROLE( 'creation_date' );
#6 = DATE_TIME_ROLE( 'classification_date' );
#7 = PERSON_AND_ORGANIZATION_ROLE( 'creator' );
#8 = PERSON_AND_ORGANIZATION_ROLE( 'design_supplier' );
#9 = PERSON_AND_ORGANIZATION_ROLE( 'classification_officer' );
#10 = PERSON_AND_ORGANIZATION_ROLE( 'design_owner' );
#11 = APPROVAL_PERSON_ORGANIZATION( #32, #33, #34 );
#12 = APPROVAL_DATE_TIME( #4, #33 );
#13 = CC_DESIGN_APPROVAL( #33, ( #35, #36, #37 ) );
#14 = CC_DESIGN_DATE_AND_TIME_ASSIGNMENT( #4, #5, ( #37 ) );
#15 = CC_DESIGN_DATE_AND_TIME_ASSIGNMENT( #4, #6, ( #35 ) );
#16 = CC_DESIGN_PERSON_AND_ORGANIZATION_ASSIGNMENT( #32, #10, ( #38 ) );
#17 = CC_DESIGN_PERSON_AND_ORGANIZATION_ASSIGNMENT( #32, #7, ( #37 ) );
#18 = CC_DESIGN_PERSON_AND_ORGANIZATION_ASSIGNMENT( #32, #7, ( #36 ) );
#19 = CC_DESIGN_PERSON_AND_ORGANIZATION_ASSIGNMENT( #32, #8, ( #36 ) );
#20 = CC_DESIGN_SECURITY_CLASSIFICATION( #35, ( #36 ) );
#21 = CC_DESIGN_PERSON_AND_ORGANIZATION_ASSIGNMENT( #32, #9, ( #35 ) );
#22 = SHAPE_DEFINITION_REPRESENTATION( #39, #40 );
#23 =  ( GEOMETRIC_REPRESENTATION_CONTEXT( 3 )GLOBAL_UNCERTAINTY_ASSIGNED_CONTEXT( ( #43 ) )GLOBAL_UNIT_ASSIGNED_CONTEXT( ( #45, #46, #47 ) )REPRESENTATION_CONTEXT( 'NONE', 'WORKSPACE' ) );
#27 = APPLICATION_CONTEXT( 'configuration controlled 3D designs of mechanical parts and assemblies' );
#28 = PRODUCT_CATEGORY( 'part', 'NONE' );
#29 = PRODUCT_RELATED_PRODUCT_CATEGORY( 'detail', ' ', ( #38 ) );
#30 = CALENDAR_DATE( 2015, 1, 3 );
#31 = LOCAL_TIME( 11, 7, 33.0000000000000, #49 );
#32 = PERSON_AND_ORGANIZATION( #50, #51 );
#33 = APPROVAL( #52, 'SOLID MODEL' );
#34 = APPROVAL_ROLE( 'APPROVED' );
#35 = SECURITY_CLASSIFICATION( '', '', #53 );
#36 = PRODUCT_DEFINITION_FORMATION_WITH_SPECIFIED_SOURCE( ' ', 'NONE', #38, .NOT_KNOWN. );
#37 = PRODUCT_DEFINITION( 'NONE', 'NONE', #36, #1 );
#38 = PRODUCT( '_FDM 16', '_FDM 16', 'PART-_FDM 16', ( #54 ) );
#39 = PRODUCT_DEFINITION_SHAPE( 'NONE', 'NONE', #37 );
#40 = ADVANCED_BREP_SHAPE_REPRESENTATION( '_FDM 16', ( #55, #56 ), #23 );
#43 = UNCERTAINTY_MEASURE_WITH_UNIT( LENGTH_MEASURE( 0.00100000000000000 ), #45, '', '' );
#45 =  ( CONVERSION_BASED_UNIT( 'MILLIMETRE', #59 )LENGTH_UNIT(  )NAMED_UNIT( #62 ) );
#46 =  ( NAMED_UNIT( #64 )PLANE_ANGLE_UNIT(  )SI_UNIT( $, .RADIAN. ) );
#47 =  ( NAMED_UNIT( #64 )SI_UNIT( $, .STERADIAN. )SOLID_ANGLE_UNIT(  ) );
#49 = COORDINATED_UNIVERSAL_TIME_OFFSET( 1, 0, .AHEAD. );
#50 = PERSON( '', 'UNSPECIFIED', $, $, $, $ );
#51 = ORGANIZATION( 'UNSPECIFIED', 'UNSPECIFIED', 'UNSPECIFIED' );
#52 = APPROVAL_STATUS( 'approved' );
#53 = SECURITY_CLASSIFICATION_LEVEL( 'unclassified' );
#54 = MECHANICAL_CONTEXT( '', #27, 'mechanical' );
#55 = MANIFOLD_SOLID_BREP( '_FDM 16', #70 );
#56 = AXIS2_PLACEMENT_3D( '', #71, #72, #73 );
#59 = LENGTH_MEASURE_WITH_UNIT( LENGTH_MEASURE( 1.00000000000000 ), #74 );
#62 = DIMENSIONAL_EXPONENTS( 1.00000000000000, 0.000000000000000, 0.000000000000000, 0.000000000000000, 0.000000000000000, 0.000000000000000, 0.000000000000000 );
#64 = DIMENSIONAL_EXPONENTS( 0.000000000000000, 0.000000000000000, 0.000000000000000, 0.000000000000000, 0.000000000000000, 0.000000000000000, 0.000000000000000 );
#70 = CLOSED_SHELL( '', ( #75, #76, #77, #78, #79, #80, #81, #82, #83, #84, #85, #86, #87, #88, #89 ) );
#71 = CARTESIAN_POINT( '', ( 0.000000000000000, 0.000000000000000, 0.000000000000000 ) );
#72 = DIRECTION( '', ( 0.000000000000000, 0.000000000000000, 1.00000000000000 ) );
#73 = DIRECTION( '', ( 1.00000000000000, 0.000000000000000, 0.000000000000000 ) );
#74 =  ( LENGTH_UNIT(  )NAMED_UNIT( #62 )SI_UNIT( .MILLI., .METRE. ) );
#75 = ADVANCED_FACE( '', ( #91 ), #92, .F. );
#76 = ADVANCED_FACE( '', ( #93, #94 ), #95, .T. );
#77 = ADVANCED_FACE( '', ( #96, #97 ), #98, .F. );
#78 = ADVANCED_FACE( '', ( #99, #100 ), #101, .T. );
#79 = ADVANCED_FACE( '', ( #102, #103 ), #104, .F. );
#80 = ADVANCED_FACE( '', ( #105, #106 ), #107, .F. );
#81 = ADVANCED_FACE( '', ( #108, #109 ), #110, .F. );
#82 = ADVANCED_FACE( '', ( #111, #112 ), #113, .T. );
#83 = ADVANCED_FACE( '', ( #114, #115 ), #116, .F. );
#84 = ADVANCED_FACE( '', ( #117, #118 ), #119, .F. );
#85 = ADVANCED_FACE( '', ( #120, #121 ), #122, .F. );
#86 = ADVANCED_FACE( '', ( #123, #124 ), #125, .T. );
#87 = ADVANCED_FACE( '', ( #126, #127 ), #128, .F. );
#88 = ADVANCED_FACE( '', ( #129, #130 ), #131, .T. );
#89 = ADVANCED_FACE( '', ( #132 ), #133, .F. );
#91 = FACE_OUTER_BOUND( '', #134, .T. );
#92 = PLANE( '', #135 );
#93 = FACE_OUTER_BOUND( '', #136, .T. );
#94 = FACE_OUTER_BOUND( '', #137, .T. );
#95 = CYLINDRICAL_SURFACE( '', #138, 8.00000000000000 );
#96 = FACE_BOUND( '', #139, .T. );
#97 = FACE_OUTER_BOUND( '', #140, .T. );
#98 = PLANE( '', #141 );
#99 = FACE_OUTER_BOUND( '', #142, .T. );
#100 = FACE_OUTER_BOUND( '', #143, .T. );
#101 = CYLINDRICAL_SURFACE( '', #144, 9.00000000000000 );
#102 = FACE_BOUND( '', #145, .T. );
#103 = FACE_OUTER_BOUND( '', #146, .T. );
#104 = PLANE( '', #147 );
#105 = FACE_OUTER_BOUND( '', #148, .T. );
#106 = FACE_OUTER_BOUND( '', #149, .T. );
#107 = CYLINDRICAL_SURFACE( '', #150, 10.0000000000000 );
#108 = FACE_BOUND( '', #151, .T. );
#109 = FACE_OUTER_BOUND( '', #152, .T. );
#110 = PLANE( '', #153 );
#111 = FACE_OUTER_BOUND( '', #154, .T. );
#112 = FACE_OUTER_BOUND( '', #155, .T. );
#113 = CYLINDRICAL_SURFACE( '', #156, 10.5000000000000 );
#114 = FACE_OUTER_BOUND( '', #157, .T. );
#115 = FACE_BOUND( '', #158, .T. );
#116 = PLANE( '', #159 );
#117 = FACE_OUTER_BOUND( '', #160, .T. );
#118 = FACE_OUTER_BOUND( '', #161, .T. );
#119 = CYLINDRICAL_SURFACE( '', #162, 2.50000000000000 );
#120 = FACE_OUTER_BOUND( '', #163, .T. );
#121 = FACE_BOUND( '', #164, .T. );
#122 = PLANE( '', #165 );
#123 = FACE_OUTER_BOUND( '', #166, .T. );
#124 = FACE_OUTER_BOUND( '', #167, .T. );
#125 = CYLINDRICAL_SURFACE( '', #168, 10.0000000000000 );
#126 = FACE_OUTER_BOUND( '', #169, .T. );
#127 = FACE_OUTER_BOUND( '', #170, .T. );
#128 = TOROIDAL_SURFACE( '', #171, 10.5000000000000, 6.00000000000000 );
#129 = FACE_OUTER_BOUND( '', #172, .T. );
#130 = FACE_OUTER_BOUND( '', #173, .T. );
#131 = CYLINDRICAL_SURFACE( '', #174, 4.50000000000000 );
#132 = FACE_OUTER_BOUND( '', #175, .T. );
#133 = PLANE( '', #176 );
#134 = EDGE_LOOP( '', ( #177 ) );
#135 = AXIS2_PLACEMENT_3D( '', #178, #179, #180 );
#136 = EDGE_LOOP( '', ( #181 ) );
#137 = EDGE_LOOP( '', ( #182 ) );
#138 = AXIS2_PLACEMENT_3D( '', #183, #184, #185 );
#139 = EDGE_LOOP( '', ( #186 ) );
#140 = EDGE_LOOP( '', ( #187 ) );
#141 = AXIS2_PLACEMENT_3D( '', #188, #189, #190 );
#142 = EDGE_LOOP( '', ( #191 ) );
#143 = EDGE_LOOP( '', ( #192 ) );
#144 = AXIS2_PLACEMENT_3D( '', #193, #194, #195 );
#145 = EDGE_LOOP( '', ( #196 ) );
#146 = EDGE_LOOP( '', ( #197 ) );
#147 = AXIS2_PLACEMENT_3D( '', #198, #199, #200 );
#148 = EDGE_LOOP( '', ( #201 ) );
#149 = EDGE_LOOP( '', ( #202 ) );
#150 = AXIS2_PLACEMENT_3D( '', #203, #204, #205 );
#151 = EDGE_LOOP( '', ( #206 ) );
#152 = EDGE_LOOP( '', ( #207 ) );
#153 = AXIS2_PLACEMENT_3D( '', #208, #209, #210 );
#154 = EDGE_LOOP( '', ( #211 ) );
#155 = EDGE_LOOP( '', ( #212 ) );
#156 = AXIS2_PLACEMENT_3D( '', #213, #214, #215 );
#157 = EDGE_LOOP( '', ( #216 ) );
#158 = EDGE_LOOP( '', ( #217 ) );
#159 = AXIS2_PLACEMENT_3D( '', #218, #219, #220 );
#160 = EDGE_LOOP( '', ( #221 ) );
#161 = EDGE_LOOP( '', ( #222 ) );
#162 = AXIS2_PLACEMENT_3D( '', #223, #224, #225 );
#163 = EDGE_LOOP( '', ( #226 ) );
#164 = EDGE_LOOP( '', ( #227 ) );
#165 = AXIS2_PLACEMENT_3D( '', #228, #229, #230 );
#166 = EDGE_LOOP( '', ( #231 ) );
#167 = EDGE_LOOP( '', ( #232 ) );
#168 = AXIS2_PLACEMENT_3D( '', #233, #234, #235 );
#169 = EDGE_LOOP( '', ( #236 ) );
#170 = EDGE_LOOP( '', ( #237 ) );
#171 = AXIS2_PLACEMENT_3D( '', #238, #239, #240 );
#172 = EDGE_LOOP( '', ( #241 ) );
#173 = EDGE_LOOP( '', ( #242 ) );
#174 = AXIS2_PLACEMENT_3D( '', #243, #244, #245 );
#175 = EDGE_LOOP( '', ( #246 ) );
#176 = AXIS2_PLACEMENT_3D( '', #247, #248, #249 );
#177 = ORIENTED_EDGE( '', *, *, #250, .F. );
#178 = CARTESIAN_POINT( '', ( 0.000000000000000, 3.00000000000000, 0.000000000000000 ) );
#179 = DIRECTION( '', ( 0.000000000000000, -1.00000000000000, -0.000000000000000 ) );
#180 = DIRECTION( '', ( 0.000000000000000, 0.000000000000000, -1.00000000000000 ) );
#181 = ORIENTED_EDGE( '', *, *, #251, .T. );
#182 = ORIENTED_EDGE( '', *, *, #252, .F. );
#183 = CARTESIAN_POINT( '', ( 0.000000000000000, 8.50000000000000, 0.000000000000000 ) );
#184 = DIRECTION( '', ( -0.000000000000000, 1.00000000000000, 0.000000000000000 ) );
#185 = DIRECTION( '', ( 0.000000000000000, 0.000000000000000, -1.00000000000000 ) );
#186 = ORIENTED_EDGE( '', *, *, #251, .F. );
#187 = ORIENTED_EDGE( '', *, *, #253, .T. );
#188 = CARTESIAN_POINT( '', ( 9.00000000000000, 10.5000000000000, 0.000000000000000 ) );
#189 = DIRECTION( '', ( 0.000000000000000, 1.00000000000000, 0.000000000000000 ) );
#190 = DIRECTION( '', ( 0.000000000000000, -0.000000000000000, 1.00000000000000 ) );
#191 = ORIENTED_EDGE( '', *, *, #253, .F. );
#192 = ORIENTED_EDGE( '', *, *, #254, .T. );
#193 = CARTESIAN_POINT( '', ( 0.000000000000000, 0.000000000000000, 0.000000000000000 ) );
#194 = DIRECTION( '', ( -0.000000000000000, 1.00000000000000, 0.000000000000000 ) );
#195 = DIRECTION( '', ( 0.000000000000000, 0.000000000000000, -1.00000000000000 ) );
#196 = ORIENTED_EDGE( '', *, *, #254, .F. );
#197 = ORIENTED_EDGE( '', *, *, #255, .T. );
#198 = CARTESIAN_POINT( '', ( 10.0000000000000, 13.5000000000000, 0.000000000000000 ) );
#199 = DIRECTION( '', ( 0.000000000000000, 1.00000000000000, 0.000000000000000 ) );
#200 = DIRECTION( '', ( 0.000000000000000, -0.000000000000000, 1.00000000000000 ) );
#201 = ORIENTED_EDGE( '', *, *, #255, .F. );
#202 = ORIENTED_EDGE( '', *, *, #256, .T. );
#203 = CARTESIAN_POINT( '', ( 0.000000000000000, 0.000000000000000, 0.000000000000000 ) );
#204 = DIRECTION( '', ( -0.000000000000000, 1.00000000000000, 0.000000000000000 ) );
#205 = DIRECTION( '', ( 0.000000000000000, 0.000000000000000, -1.00000000000000 ) );
#206 = ORIENTED_EDGE( '', *, *, #256, .F. );
#207 = ORIENTED_EDGE( '', *, *, #257, .T. );
#208 = CARTESIAN_POINT( '', ( 10.5000000000000, 10.5000000000000, 0.000000000000000 ) );
#209 = DIRECTION( '', ( 0.000000000000000, 1.00000000000000, 0.000000000000000 ) );
#210 = DIRECTION( '', ( 0.000000000000000, -0.000000000000000, 1.00000000000000 ) );
#211 = ORIENTED_EDGE( '', *, *, #257, .F. );
#212 = ORIENTED_EDGE( '', *, *, #258, .T. );
#213 = CARTESIAN_POINT( '', ( 0.000000000000000, 0.000000000000000, 0.000000000000000 ) );
#214 = DIRECTION( '', ( -0.000000000000000, 1.00000000000000, 0.000000000000000 ) );
#215 = DIRECTION( '', ( 0.000000000000000, 0.000000000000000, -1.00000000000000 ) );
#216 = ORIENTED_EDGE( '', *, *, #258, .F. );
#217 = ORIENTED_EDGE( '', *, *, #259, .T. );
#218 = CARTESIAN_POINT( '', ( 2.50000000000000, 18.0000000000000, 0.000000000000000 ) );
#219 = DIRECTION( '', ( 0.000000000000000, -1.00000000000000, -0.000000000000000 ) );
#220 = DIRECTION( '', ( 0.000000000000000, 0.000000000000000, -1.00000000000000 ) );
#221 = ORIENTED_EDGE( '', *, *, #259, .F. );
#222 = ORIENTED_EDGE( '', *, *, #250, .T. );
#223 = CARTESIAN_POINT( '', ( 0.000000000000000, 0.000000000000000, 0.000000000000000 ) );
#224 = DIRECTION( '', ( -0.000000000000000, 1.00000000000000, 0.000000000000000 ) );
#225 = DIRECTION( '', ( 0.000000000000000, 0.000000000000000, -1.00000000000000 ) );
#226 = ORIENTED_EDGE( '', *, *, #260, .F. );
#227 = ORIENTED_EDGE( '', *, *, #252, .T. );
#228 = CARTESIAN_POINT( '', ( 5.00000000000000, 8.50000000000000, 0.000000000000000 ) );
#229 = DIRECTION( '', ( 0.000000000000000, -1.00000000000000, -0.000000000000000 ) );
#230 = DIRECTION( '', ( 0.000000000000000, 0.000000000000000, -1.00000000000000 ) );
#231 = ORIENTED_EDGE( '', *, *, #261, .F. );
#232 = ORIENTED_EDGE( '', *, *, #260, .T. );
#233 = CARTESIAN_POINT( '', ( 0.000000000000000, 0.000000000000000, 0.000000000000000 ) );
#234 = DIRECTION( '', ( -0.000000000000000, 1.00000000000000, 0.000000000000000 ) );
#235 = DIRECTION( '', ( 0.000000000000000, 0.000000000000000, -1.00000000000000 ) );
#236 = ORIENTED_EDGE( '', *, *, #262, .F. );
#237 = ORIENTED_EDGE( '', *, *, #261, .T. );
#238 = CARTESIAN_POINT( '', ( 0.000000000000000, 0.521000000000001, 0.000000000000000 ) );
#239 = DIRECTION( '', ( 0.000000000000000, -1.00000000000000, -0.000000000000000 ) );
#240 = DIRECTION( '', ( 0.000000000000000, 0.000000000000000, -1.00000000000000 ) );
#241 = ORIENTED_EDGE( '', *, *, #263, .F. );
#242 = ORIENTED_EDGE( '', *, *, #262, .T. );
#243 = CARTESIAN_POINT( '', ( 0.000000000000000, 0.000000000000000, 0.000000000000000 ) );
#244 = DIRECTION( '', ( -0.000000000000000, 1.00000000000000, 0.000000000000000 ) );
#245 = DIRECTION( '', ( 0.000000000000000, 0.000000000000000, -1.00000000000000 ) );
#246 = ORIENTED_EDGE( '', *, *, #263, .T. );
#247 = CARTESIAN_POINT( '', ( 4.50000000000000, 0.000000000000000, 0.000000000000000 ) );
#248 = DIRECTION( '', ( 0.000000000000000, 1.00000000000000, 0.000000000000000 ) );
#249 = DIRECTION( '', ( 0.000000000000000, -0.000000000000000, 1.00000000000000 ) );
#250 = EDGE_CURVE( '', #264, #264, #265, .T. );
#251 = EDGE_CURVE( '', #266, #266, #267, .T. );
#252 = EDGE_CURVE( '', #268, #268, #269, .T. );
#253 = EDGE_CURVE( '', #270, #270, #271, .T. );
#254 = EDGE_CURVE( '', #272, #272, #273, .T. );
#255 = EDGE_CURVE( '', #274, #274, #275, .T. );
#256 = EDGE_CURVE( '', #276, #276, #277, .T. );
#257 = EDGE_CURVE( '', #278, #278, #279, .T. );
#258 = EDGE_CURVE( '', #280, #280, #281, .T. );
#259 = EDGE_CURVE( '', #282, #282, #283, .T. );
#260 = EDGE_CURVE( '', #284, #284, #285, .T. );
#261 = EDGE_CURVE( '', #286, #286, #287, .T. );
#262 = EDGE_CURVE( '', #288, #288, #289, .T. );
#263 = EDGE_CURVE( '', #290, #290, #291, .T. );
#264 = VERTEX_POINT( '', #292 );
#265 = CIRCLE( '', #293, 2.50000000000000 );
#266 = VERTEX_POINT( '', #294 );
#267 = CIRCLE( '', #295, 8.00000000000000 );
#268 = VERTEX_POINT( '', #296 );
#269 = CIRCLE( '', #297, 8.00000000000000 );
#270 = VERTEX_POINT( '', #298 );
#271 = CIRCLE( '', #299, 9.00000000000000 );
#272 = VERTEX_POINT( '', #300 );
#273 = CIRCLE( '', #301, 9.00000000000000 );
#274 = VERTEX_POINT( '', #302 );
#275 = CIRCLE( '', #303, 10.0000000000000 );
#276 = VERTEX_POINT( '', #304 );
#277 = CIRCLE( '', #305, 10.0000000000000 );
#278 = VERTEX_POINT( '', #306 );
#279 = CIRCLE( '', #307, 10.5000000000000 );
#280 = VERTEX_POINT( '', #308 );
#281 = CIRCLE( '', #309, 10.5000000000000 );
#282 = VERTEX_POINT( '', #310 );
#283 = CIRCLE( '', #311, 2.50000000000000 );
#284 = VERTEX_POINT( '', #312 );
#285 = CIRCLE( '', #313, 10.0000000000000 );
#286 = VERTEX_POINT( '', #314 );
#287 = CIRCLE( '', #315, 10.0000000000000 );
#288 = VERTEX_POINT( '', #316 );
#289 = CIRCLE( '', #317, 4.50000000000000 );
#290 = VERTEX_POINT( '', #318 );
#291 = CIRCLE( '', #319, 4.50000000000000 );
#292 = CARTESIAN_POINT( '', ( 0.000000000000000, 3.00000000000000, -2.50000000000000 ) );
#293 = AXIS2_PLACEMENT_3D( '', #320, #321, #322 );
#294 = CARTESIAN_POINT( '', ( 0.000000000000000, 10.5000000000000, -8.00000000000000 ) );
#295 = AXIS2_PLACEMENT_3D( '', #323, #324, #325 );
#296 = CARTESIAN_POINT( '', ( 0.000000000000000, 8.50000000000000, -8.00000000000000 ) );
#297 = AXIS2_PLACEMENT_3D( '', #326, #327, #328 );
#298 = CARTESIAN_POINT( '', ( 0.000000000000000, 10.5000000000000, -9.00000000000000 ) );
#299 = AXIS2_PLACEMENT_3D( '', #329, #330, #331 );
#300 = CARTESIAN_POINT( '', ( 0.000000000000000, 13.5000000000000, -9.00000000000000 ) );
#301 = AXIS2_PLACEMENT_3D( '', #332, #333, #334 );
#302 = CARTESIAN_POINT( '', ( 0.000000000000000, 13.5000000000000, -10.0000000000000 ) );
#303 = AXIS2_PLACEMENT_3D( '', #335, #336, #337 );
#304 = CARTESIAN_POINT( '', ( 0.000000000000000, 10.5000000000000, -10.0000000000000 ) );
#305 = AXIS2_PLACEMENT_3D( '', #338, #339, #340 );
#306 = CARTESIAN_POINT( '', ( 0.000000000000000, 10.5000000000000, -10.5000000000000 ) );
#307 = AXIS2_PLACEMENT_3D( '', #341, #342, #343 );
#308 = CARTESIAN_POINT( '', ( 0.000000000000000, 18.0000000000000, -10.5000000000000 ) );
#309 = AXIS2_PLACEMENT_3D( '', #344, #345, #346 );
#310 = CARTESIAN_POINT( '', ( 0.000000000000000, 18.0000000000000, -2.50000000000000 ) );
#311 = AXIS2_PLACEMENT_3D( '', #347, #348, #349 );
#312 = CARTESIAN_POINT( '', ( 0.000000000000000, 8.50000000000000, -10.0000000000000 ) );
#313 = AXIS2_PLACEMENT_3D( '', #350, #351, #352 );
#314 = CARTESIAN_POINT( '', ( 0.000000000000000, 6.50013037155070, -10.0000000000000 ) );
#315 = AXIS2_PLACEMENT_3D( '', #353, #354, #355 );
#316 = CARTESIAN_POINT( '', ( 0.000000000000000, 0.521000000000001, -4.50000000000000 ) );
#317 = AXIS2_PLACEMENT_3D( '', #356, #357, #358 );
#318 = CARTESIAN_POINT( '', ( 0.000000000000000, 0.000000000000000, -4.50000000000000 ) );
#319 = AXIS2_PLACEMENT_3D( '', #359, #360, #361 );
#320 = CARTESIAN_POINT( '', ( 0.000000000000000, 3.00000000000000, 0.000000000000000 ) );
#321 = DIRECTION( '', ( 0.000000000000000, -1.00000000000000, -0.000000000000000 ) );
#322 = DIRECTION( '', ( 0.000000000000000, 0.000000000000000, -1.00000000000000 ) );
#323 = CARTESIAN_POINT( '', ( 0.000000000000000, 10.5000000000000, 0.000000000000000 ) );
#324 = DIRECTION( '', ( 0.000000000000000, -1.00000000000000, -0.000000000000000 ) );
#325 = DIRECTION( '', ( 0.000000000000000, 0.000000000000000, -1.00000000000000 ) );
#326 = CARTESIAN_POINT( '', ( 0.000000000000000, 8.50000000000000, 0.000000000000000 ) );
#327 = DIRECTION( '', ( 0.000000000000000, -1.00000000000000, -0.000000000000000 ) );
#328 = DIRECTION( '', ( 0.000000000000000, 0.000000000000000, -1.00000000000000 ) );
#329 = CARTESIAN_POINT( '', ( 0.000000000000000, 10.5000000000000, 0.000000000000000 ) );
#330 = DIRECTION( '', ( 0.000000000000000, -1.00000000000000, -0.000000000000000 ) );
#331 = DIRECTION( '', ( 0.000000000000000, 0.000000000000000, -1.00000000000000 ) );
#332 = CARTESIAN_POINT( '', ( 0.000000000000000, 13.5000000000000, 0.000000000000000 ) );
#333 = DIRECTION( '', ( 0.000000000000000, -1.00000000000000, -0.000000000000000 ) );
#334 = DIRECTION( '', ( 0.000000000000000, 0.000000000000000, -1.00000000000000 ) );
#335 = CARTESIAN_POINT( '', ( 0.000000000000000, 13.5000000000000, 0.000000000000000 ) );
#336 = DIRECTION( '', ( 0.000000000000000, -1.00000000000000, -0.000000000000000 ) );
#337 = DIRECTION( '', ( 0.000000000000000, 0.000000000000000, -1.00000000000000 ) );
#338 = CARTESIAN_POINT( '', ( 0.000000000000000, 10.5000000000000, 0.000000000000000 ) );
#339 = DIRECTION( '', ( 0.000000000000000, -1.00000000000000, -0.000000000000000 ) );
#340 = DIRECTION( '', ( 0.000000000000000, 0.000000000000000, -1.00000000000000 ) );
#341 = CARTESIAN_POINT( '', ( 0.000000000000000, 10.5000000000000, 0.000000000000000 ) );
#342 = DIRECTION( '', ( 0.000000000000000, -1.00000000000000, -0.000000000000000 ) );
#343 = DIRECTION( '', ( 0.000000000000000, 0.000000000000000, -1.00000000000000 ) );
#344 = CARTESIAN_POINT( '', ( 0.000000000000000, 18.0000000000000, 0.000000000000000 ) );
#345 = DIRECTION( '', ( 0.000000000000000, -1.00000000000000, -0.000000000000000 ) );
#346 = DIRECTION( '', ( 0.000000000000000, 0.000000000000000, -1.00000000000000 ) );
#347 = CARTESIAN_POINT( '', ( 0.000000000000000, 18.0000000000000, 0.000000000000000 ) );
#348 = DIRECTION( '', ( 0.000000000000000, -1.00000000000000, -0.000000000000000 ) );
#349 = DIRECTION( '', ( 0.000000000000000, 0.000000000000000, -1.00000000000000 ) );
#350 = CARTESIAN_POINT( '', ( 0.000000000000000, 8.50000000000000, 0.000000000000000 ) );
#351 = DIRECTION( '', ( 0.000000000000000, -1.00000000000000, -0.000000000000000 ) );
#352 = DIRECTION( '', ( 0.000000000000000, 0.000000000000000, -1.00000000000000 ) );
#353 = CARTESIAN_POINT( '', ( 0.000000000000000, 6.50013037155070, 0.000000000000000 ) );
#354 = DIRECTION( '', ( 0.000000000000000, -1.00000000000000, -0.000000000000000 ) );
#355 = DIRECTION( '', ( 0.000000000000000, 0.000000000000000, -1.00000000000000 ) );
#356 = CARTESIAN_POINT( '', ( 0.000000000000000, 0.521000000000001, 0.000000000000000 ) );
#357 = DIRECTION( '', ( 0.000000000000000, -1.00000000000000, -0.000000000000000 ) );
#358 = DIRECTION( '', ( 0.000000000000000, 0.000000000000000, -1.00000000000000 ) );
#359 = CARTESIAN_POINT( '', ( 0.000000000000000, 0.000000000000000, 0.000000000000000 ) );
#360 = DIRECTION( '', ( 0.000000000000000, -1.00000000000000, -0.000000000000000 ) );
#361 = DIRECTION( '', ( 0.000000000000000, 0.000000000000000, -1.00000000000000 ) );
ENDSEC;
END-ISO-10303-21;
