ISO-10303-21;
HEADER;
/* Generated by software containing ST-Developer
 * from STEP Tools, Inc. (www.steptools.com) 
 */
/* OPTION: using custom schema-name function */

FILE_DESCRIPTION(
/* description */ (''),
/* implementation_level */ '2;1');

FILE_NAME(
/* name */ '28786_7_KDS_KES-VS_7.stp',
/* time_stamp */ '2020-04-16T11:04:30+02:00',
/* author */ (''),
/* organization */ (''),
/* preprocessor_version */ 'ST-DEVELOPER v16.7',
/* originating_system */ 'SIEMENS PLM Software NX 12.0',
/* authorisation */ '');

FILE_SCHEMA (('AUTOMOTIVE_DESIGN { 1 0 10303 214 3 1 1 1 }'));
ENDSEC;

DATA;
#10=SHAPE_REPRESENTATION_RELATIONSHIP('None',
'relationship between 28786_7_KDS_KES-VS_7-None and 28786_7_KDS_KES-VS_7-None',
#22,#11);
#11=ADVANCED_BREP_SHAPE_REPRESENTATION('28786_7_KDS_KES-VS_7-None',(#32),#556);
#12=SHAPE_DEFINITION_REPRESENTATION(#13,#22);
#13=PRODUCT_DEFINITION_SHAPE('','',#14);
#14=PRODUCT_DEFINITION(' ','',#16,#15);
#15=PRODUCT_DEFINITION_CONTEXT('part definition',#21,'design');
#16=PRODUCT_DEFINITION_FORMATION_WITH_SPECIFIED_SOURCE(' ',' ',#18,
 .NOT_KNOWN.);
#17=PRODUCT_RELATED_PRODUCT_CATEGORY('part','',(#18));
#18=PRODUCT('28786_7_KDS_KES-VS_7','28786_7_KDS_KES-VS_7',' ',(#19));
#19=PRODUCT_CONTEXT(' ',#21,'mechanical');
#20=APPLICATION_PROTOCOL_DEFINITION('international standard',
'automotive_design',2010,#21);
#21=APPLICATION_CONTEXT(
'core data for automotive mechanical design processes');
#22=SHAPE_REPRESENTATION('28786_7_KDS_KES-VS_7-None',(#298),#556);
#23=PRESENTATION_LAYER_ASSIGNMENT('1','Layer 1',(#32));
#24=STYLED_ITEM('',(#25),#32);
#25=PRESENTATION_STYLE_ASSIGNMENT((#26));
#26=SURFACE_STYLE_USAGE(.BOTH.,#27);
#27=SURFACE_SIDE_STYLE('',(#28));
#28=SURFACE_STYLE_FILL_AREA(#29);
#29=FILL_AREA_STYLE('',(#30));
#30=FILL_AREA_STYLE_COLOUR('',#31);
#31=COLOUR_RGB('Medium Steel',0.596063172350652,0.666666666666667,0.686259250782025);
#32=MANIFOLD_SOLID_BREP('',#33);
#33=CLOSED_SHELL('',(#99,#100,#101,#102,#103,#104,#105,#106,#107,#108,#109,
#110,#111,#112,#113,#114,#115,#116));
#34=CONICAL_SURFACE('',#324,3.1,11.3099324740202);
#35=SURFACE_OF_LINEAR_EXTRUSION('',#78,#61);
#36=SURFACE_OF_LINEAR_EXTRUSION('',#80,#63);
#37=SURFACE_OF_LINEAR_EXTRUSION('',#82,#66);
#38=SURFACE_OF_LINEAR_EXTRUSION('',#84,#68);
#39=FACE_OUTER_BOUND('',#144,.T.);
#40=FACE_OUTER_BOUND('',#145,.T.);
#41=FACE_OUTER_BOUND('',#146,.T.);
#42=FACE_OUTER_BOUND('',#147,.T.);
#43=FACE_OUTER_BOUND('',#148,.T.);
#44=FACE_OUTER_BOUND('',#149,.T.);
#45=FACE_OUTER_BOUND('',#150,.T.);
#46=FACE_OUTER_BOUND('',#151,.T.);
#47=FACE_OUTER_BOUND('',#152,.T.);
#48=FACE_OUTER_BOUND('',#153,.T.);
#49=FACE_OUTER_BOUND('',#154,.T.);
#50=LINE('',#464,#59);
#51=LINE('',#474,#60);
#52=LINE('',#482,#62);
#53=LINE('',#492,#64);
#54=LINE('',#499,#65);
#55=LINE('',#504,#67);
#56=LINE('',#518,#69);
#57=LINE('',#525,#70);
#58=LINE('',#537,#71);
#59=VECTOR('',#359,1.);
#60=VECTOR('',#360,1.);
#61=VECTOR('',#361,1.);
#62=VECTOR('',#362,1.);
#63=VECTOR('',#363,1.);
#64=VECTOR('',#364,1.);
#65=VECTOR('',#365,1.);
#66=VECTOR('',#366,1.);
#67=VECTOR('',#367,1.);
#68=VECTOR('',#368,1.);
#69=VECTOR('',#369,1.);
#70=VECTOR('',#370,1.);
#71=VECTOR('',#377,1.);
#72=SPHERICAL_SURFACE('',#314,19.6099999999996);
#73=B_SPLINE_CURVE_WITH_KNOTS('',3,(#418,#419,#420,#421,#422,#423,#424,
#425,#426,#427),.UNSPECIFIED.,.F.,.F.,(4,3,3,4),(0.,0.274289998926828,0.547297312303281,
1.),.UNSPECIFIED.);
#74=B_SPLINE_CURVE_WITH_KNOTS('',3,(#429,#430,#431,#432,#433,#434,#435,
#436,#437,#438),.UNSPECIFIED.,.F.,.F.,(4,3,3,4),(0.,0.267926825636756,0.535810466054154,
1.),.UNSPECIFIED.);
#75=B_SPLINE_CURVE_WITH_KNOTS('',3,(#442,#443,#444,#445,#446,#447,#448,
#449,#450,#451),.UNSPECIFIED.,.F.,.F.,(4,3,3,4),(0.,0.298997300320761,0.597594027013002,
1.),.UNSPECIFIED.);
#76=B_SPLINE_CURVE_WITH_KNOTS('',3,(#453,#454,#455,#456,#457,#458,#459,
#460,#461,#462),.UNSPECIFIED.,.F.,.F.,(4,3,3,4),(0.,0.278337710415433,0.556623078987352,
1.),.UNSPECIFIED.);
#77=B_SPLINE_CURVE_WITH_KNOTS('',3,(#466,#467,#468,#469,#470,#471,#472),
 .UNSPECIFIED.,.F.,.F.,(4,3,4),(0.,0.476495897502914,1.),.UNSPECIFIED.);
#78=B_SPLINE_CURVE_WITH_KNOTS('',3,(#475,#476,#477,#478,#479,#480,#481),
 .UNSPECIFIED.,.F.,.F.,(4,3,4),(0.,0.476495897502914,1.),.UNSPECIFIED.);
#79=B_SPLINE_CURVE_WITH_KNOTS('',3,(#484,#485,#486,#487),.UNSPECIFIED.,
 .F.,.F.,(4,4),(0.,1.),.UNSPECIFIED.);
#80=B_SPLINE_CURVE_WITH_KNOTS('',3,(#488,#489,#490,#491),.UNSPECIFIED.,
 .F.,.F.,(4,4),(0.,1.),.UNSPECIFIED.);
#81=B_SPLINE_CURVE_WITH_KNOTS('',3,(#494,#495,#496,#497),.UNSPECIFIED.,
 .F.,.F.,(4,4),(0.,1.),.UNSPECIFIED.);
#82=B_SPLINE_CURVE_WITH_KNOTS('',3,(#500,#501,#502,#503),.UNSPECIFIED.,
 .F.,.F.,(4,4),(0.,1.),.UNSPECIFIED.);
#83=B_SPLINE_CURVE_WITH_KNOTS('',3,(#506,#507,#508,#509,#510,#511),
 .UNSPECIFIED.,.F.,.F.,(4,2,4),(0.,0.5,1.),.UNSPECIFIED.);
#84=B_SPLINE_CURVE_WITH_KNOTS('',3,(#512,#513,#514,#515,#516,#517),
 .UNSPECIFIED.,.F.,.F.,(4,2,4),(0.,0.5,1.),.UNSPECIFIED.);
#85=B_SPLINE_CURVE_WITH_KNOTS('',3,(#520,#521,#522,#523),.UNSPECIFIED.,
 .F.,.F.,(4,4),(0.,1.),.UNSPECIFIED.);
#86=B_SPLINE_CURVE_WITH_KNOTS('',3,(#527,#528,#529,#530),.UNSPECIFIED.,
 .F.,.F.,(4,4),(0.,1.),.UNSPECIFIED.);
#87=B_SPLINE_CURVE_WITH_KNOTS('',3,(#532,#533,#534,#535),.UNSPECIFIED.,
 .F.,.F.,(4,4),(0.,1.),.UNSPECIFIED.);
#88=B_SPLINE_CURVE_WITH_KNOTS('',3,(#539,#540,#541,#542),.UNSPECIFIED.,
 .F.,.F.,(4,4),(0.,1.),.UNSPECIFIED.);
#89=B_SPLINE_CURVE_WITH_KNOTS('',3,(#544,#545,#546,#547),.UNSPECIFIED.,
 .F.,.F.,(4,4),(0.,1.),.UNSPECIFIED.);
#90=PLANE('',#303);
#91=PLANE('',#308);
#92=PLANE('',#315);
#93=PLANE('',#316);
#94=PLANE('',#317);
#95=PLANE('',#318);
#96=PLANE('',#319);
#97=PLANE('',#320);
#98=PLANE('',#322);
#99=ADVANCED_FACE('',(#120,#121),#117,.T.);
#100=ADVANCED_FACE('',(#122,#123),#90,.F.);
#101=ADVANCED_FACE('',(#124,#125),#118,.T.);
#102=ADVANCED_FACE('',(#126,#127),#91,.F.);
#103=ADVANCED_FACE('',(#128,#129),#72,.T.);
#104=ADVANCED_FACE('',(#39),#35,.T.);
#105=ADVANCED_FACE('',(#40),#36,.T.);
#106=ADVANCED_FACE('',(#41),#37,.T.);
#107=ADVANCED_FACE('',(#42),#38,.T.);
#108=ADVANCED_FACE('',(#43),#92,.T.);
#109=ADVANCED_FACE('',(#44),#93,.T.);
#110=ADVANCED_FACE('',(#45),#94,.T.);
#111=ADVANCED_FACE('',(#46),#95,.T.);
#112=ADVANCED_FACE('',(#47),#96,.T.);
#113=ADVANCED_FACE('',(#48),#97,.F.);
#114=ADVANCED_FACE('',(#49),#98,.F.);
#115=ADVANCED_FACE('',(#130,#131),#119,.F.);
#116=ADVANCED_FACE('',(#132,#133),#34,.T.);
#117=CYLINDRICAL_SURFACE('',#301,4.4);
#118=CYLINDRICAL_SURFACE('',#305,3.5);
#119=CYLINDRICAL_SURFACE('',#323,2.);
#120=FACE_BOUND('',#134,.T.);
#121=FACE_BOUND('',#135,.T.);
#122=FACE_BOUND('',#136,.T.);
#123=FACE_BOUND('',#137,.T.);
#124=FACE_BOUND('',#138,.T.);
#125=FACE_BOUND('',#139,.T.);
#126=FACE_BOUND('',#140,.T.);
#127=FACE_BOUND('',#141,.T.);
#128=FACE_BOUND('',#142,.T.);
#129=FACE_BOUND('',#143,.T.);
#130=FACE_BOUND('',#155,.T.);
#131=FACE_BOUND('',#156,.T.);
#132=FACE_BOUND('',#157,.T.);
#133=FACE_BOUND('',#158,.T.);
#134=EDGE_LOOP('',(#159));
#135=EDGE_LOOP('',(#160));
#136=EDGE_LOOP('',(#161));
#137=EDGE_LOOP('',(#162));
#138=EDGE_LOOP('',(#163));
#139=EDGE_LOOP('',(#164));
#140=EDGE_LOOP('',(#165));
#141=EDGE_LOOP('',(#166));
#142=EDGE_LOOP('',(#167,#168,#169,#170,#171,#172,#173,#174,#175));
#143=EDGE_LOOP('',(#176));
#144=EDGE_LOOP('',(#177,#178,#179,#180));
#145=EDGE_LOOP('',(#181,#182,#183,#184));
#146=EDGE_LOOP('',(#185,#186,#187,#188));
#147=EDGE_LOOP('',(#189,#190,#191,#192));
#148=EDGE_LOOP('',(#193,#194,#195,#196));
#149=EDGE_LOOP('',(#197,#198,#199,#200));
#150=EDGE_LOOP('',(#201,#202,#203,#204));
#151=EDGE_LOOP('',(#205,#206,#207,#208));
#152=EDGE_LOOP('',(#209,#210,#211,#212));
#153=EDGE_LOOP('',(#213,#214,#215,#216,#217,#218,#219,#220,#221));
#154=EDGE_LOOP('',(#222));
#155=EDGE_LOOP('',(#223));
#156=EDGE_LOOP('',(#224));
#157=EDGE_LOOP('',(#225));
#158=EDGE_LOOP('',(#226));
#159=ORIENTED_EDGE('',*,*,#252,.F.);
#160=ORIENTED_EDGE('',*,*,#253,.T.);
#161=ORIENTED_EDGE('',*,*,#254,.F.);
#162=ORIENTED_EDGE('',*,*,#252,.T.);
#163=ORIENTED_EDGE('',*,*,#255,.T.);
#164=ORIENTED_EDGE('',*,*,#254,.T.);
#165=ORIENTED_EDGE('',*,*,#256,.T.);
#166=ORIENTED_EDGE('',*,*,#257,.F.);
#167=ORIENTED_EDGE('',*,*,#258,.T.);
#168=ORIENTED_EDGE('',*,*,#259,.T.);
#169=ORIENTED_EDGE('',*,*,#260,.T.);
#170=ORIENTED_EDGE('',*,*,#261,.T.);
#171=ORIENTED_EDGE('',*,*,#262,.T.);
#172=ORIENTED_EDGE('',*,*,#263,.T.);
#173=ORIENTED_EDGE('',*,*,#264,.T.);
#174=ORIENTED_EDGE('',*,*,#265,.T.);
#175=ORIENTED_EDGE('',*,*,#266,.T.);
#176=ORIENTED_EDGE('',*,*,#253,.F.);
#177=ORIENTED_EDGE('',*,*,#266,.F.);
#178=ORIENTED_EDGE('',*,*,#267,.T.);
#179=ORIENTED_EDGE('',*,*,#268,.F.);
#180=ORIENTED_EDGE('',*,*,#269,.F.);
#181=ORIENTED_EDGE('',*,*,#265,.F.);
#182=ORIENTED_EDGE('',*,*,#270,.T.);
#183=ORIENTED_EDGE('',*,*,#271,.F.);
#184=ORIENTED_EDGE('',*,*,#267,.F.);
#185=ORIENTED_EDGE('',*,*,#263,.F.);
#186=ORIENTED_EDGE('',*,*,#272,.T.);
#187=ORIENTED_EDGE('',*,*,#273,.F.);
#188=ORIENTED_EDGE('',*,*,#274,.F.);
#189=ORIENTED_EDGE('',*,*,#262,.F.);
#190=ORIENTED_EDGE('',*,*,#275,.T.);
#191=ORIENTED_EDGE('',*,*,#276,.F.);
#192=ORIENTED_EDGE('',*,*,#272,.F.);
#193=ORIENTED_EDGE('',*,*,#259,.F.);
#194=ORIENTED_EDGE('',*,*,#277,.T.);
#195=ORIENTED_EDGE('',*,*,#278,.F.);
#196=ORIENTED_EDGE('',*,*,#279,.F.);
#197=ORIENTED_EDGE('',*,*,#258,.F.);
#198=ORIENTED_EDGE('',*,*,#269,.T.);
#199=ORIENTED_EDGE('',*,*,#280,.F.);
#200=ORIENTED_EDGE('',*,*,#277,.F.);
#201=ORIENTED_EDGE('',*,*,#264,.F.);
#202=ORIENTED_EDGE('',*,*,#274,.T.);
#203=ORIENTED_EDGE('',*,*,#281,.F.);
#204=ORIENTED_EDGE('',*,*,#270,.F.);
#205=ORIENTED_EDGE('',*,*,#261,.F.);
#206=ORIENTED_EDGE('',*,*,#282,.T.);
#207=ORIENTED_EDGE('',*,*,#283,.F.);
#208=ORIENTED_EDGE('',*,*,#275,.F.);
#209=ORIENTED_EDGE('',*,*,#260,.F.);
#210=ORIENTED_EDGE('',*,*,#279,.T.);
#211=ORIENTED_EDGE('',*,*,#284,.F.);
#212=ORIENTED_EDGE('',*,*,#282,.F.);
#213=ORIENTED_EDGE('',*,*,#278,.T.);
#214=ORIENTED_EDGE('',*,*,#280,.T.);
#215=ORIENTED_EDGE('',*,*,#268,.T.);
#216=ORIENTED_EDGE('',*,*,#271,.T.);
#217=ORIENTED_EDGE('',*,*,#281,.T.);
#218=ORIENTED_EDGE('',*,*,#273,.T.);
#219=ORIENTED_EDGE('',*,*,#276,.T.);
#220=ORIENTED_EDGE('',*,*,#283,.T.);
#221=ORIENTED_EDGE('',*,*,#284,.T.);
#222=ORIENTED_EDGE('',*,*,#285,.F.);
#223=ORIENTED_EDGE('',*,*,#257,.T.);
#224=ORIENTED_EDGE('',*,*,#285,.T.);
#225=ORIENTED_EDGE('',*,*,#255,.F.);
#226=ORIENTED_EDGE('',*,*,#256,.F.);
#227=VERTEX_POINT('',#394);
#228=VERTEX_POINT('',#396);
#229=VERTEX_POINT('',#399);
#230=VERTEX_POINT('',#402);
#231=VERTEX_POINT('',#405);
#232=VERTEX_POINT('',#407);
#233=VERTEX_POINT('',#410);
#234=VERTEX_POINT('',#411);
#235=VERTEX_POINT('',#413);
#236=VERTEX_POINT('',#415);
#237=VERTEX_POINT('',#417);
#238=VERTEX_POINT('',#428);
#239=VERTEX_POINT('',#439);
#240=VERTEX_POINT('',#441);
#241=VERTEX_POINT('',#452);
#242=VERTEX_POINT('',#465);
#243=VERTEX_POINT('',#473);
#244=VERTEX_POINT('',#483);
#245=VERTEX_POINT('',#493);
#246=VERTEX_POINT('',#498);
#247=VERTEX_POINT('',#505);
#248=VERTEX_POINT('',#519);
#249=VERTEX_POINT('',#524);
#250=VERTEX_POINT('',#538);
#251=VERTEX_POINT('',#551);
#252=EDGE_CURVE('',#227,#227,#286,.T.);
#253=EDGE_CURVE('',#228,#228,#287,.T.);
#254=EDGE_CURVE('',#229,#229,#288,.T.);
#255=EDGE_CURVE('',#230,#230,#289,.T.);
#256=EDGE_CURVE('',#231,#231,#290,.T.);
#257=EDGE_CURVE('',#232,#232,#291,.T.);
#258=EDGE_CURVE('',#233,#234,#292,.T.);
#259=EDGE_CURVE('',#234,#235,#293,.T.);
#260=EDGE_CURVE('',#235,#236,#294,.T.);
#261=EDGE_CURVE('',#236,#237,#295,.T.);
#262=EDGE_CURVE('',#237,#238,#73,.T.);
#263=EDGE_CURVE('',#238,#239,#74,.T.);
#264=EDGE_CURVE('',#239,#240,#296,.T.);
#265=EDGE_CURVE('',#240,#241,#75,.T.);
#266=EDGE_CURVE('',#241,#233,#76,.T.);
#267=EDGE_CURVE('',#241,#242,#50,.T.);
#268=EDGE_CURVE('',#243,#242,#77,.T.);
#269=EDGE_CURVE('',#233,#243,#51,.T.);
#270=EDGE_CURVE('',#240,#244,#52,.T.);
#271=EDGE_CURVE('',#242,#244,#79,.T.);
#272=EDGE_CURVE('',#238,#245,#53,.T.);
#273=EDGE_CURVE('',#246,#245,#81,.T.);
#274=EDGE_CURVE('',#239,#246,#54,.T.);
#275=EDGE_CURVE('',#237,#247,#55,.T.);
#276=EDGE_CURVE('',#245,#247,#83,.T.);
#277=EDGE_CURVE('',#234,#248,#56,.T.);
#278=EDGE_CURVE('',#249,#248,#85,.T.);
#279=EDGE_CURVE('',#235,#249,#57,.T.);
#280=EDGE_CURVE('',#248,#243,#86,.T.);
#281=EDGE_CURVE('',#244,#246,#87,.T.);
#282=EDGE_CURVE('',#236,#250,#58,.T.);
#283=EDGE_CURVE('',#247,#250,#88,.T.);
#284=EDGE_CURVE('',#250,#249,#89,.T.);
#285=EDGE_CURVE('',#251,#251,#297,.T.);
#286=CIRCLE('',#299,4.4);
#287=CIRCLE('',#300,4.4);
#288=CIRCLE('',#302,3.5);
#289=CIRCLE('',#304,3.5);
#290=CIRCLE('',#306,3.1);
#291=CIRCLE('',#307,2.);
#292=CIRCLE('',#309,19.6021831788572);
#293=CIRCLE('',#310,19.6039886579625);
#294=CIRCLE('',#311,19.5963878026104);
#295=CIRCLE('',#312,19.6039886579625);
#296=CIRCLE('',#313,19.5956525790794);
#297=CIRCLE('',#321,2.);
#298=AXIS2_PLACEMENT_3D('',#392,#325,#326);
#299=AXIS2_PLACEMENT_3D('',#393,#327,#328);
#300=AXIS2_PLACEMENT_3D('',#395,#329,#330);
#301=AXIS2_PLACEMENT_3D('',#397,#331,#332);
#302=AXIS2_PLACEMENT_3D('',#398,#333,#334);
#303=AXIS2_PLACEMENT_3D('',#400,#335,#336);
#304=AXIS2_PLACEMENT_3D('',#401,#337,#338);
#305=AXIS2_PLACEMENT_3D('',#403,#339,#340);
#306=AXIS2_PLACEMENT_3D('',#404,#341,#342);
#307=AXIS2_PLACEMENT_3D('',#406,#343,#344);
#308=AXIS2_PLACEMENT_3D('',#408,#345,#346);
#309=AXIS2_PLACEMENT_3D('',#409,#347,#348);
#310=AXIS2_PLACEMENT_3D('',#412,#349,#350);
#311=AXIS2_PLACEMENT_3D('',#414,#351,#352);
#312=AXIS2_PLACEMENT_3D('',#416,#353,#354);
#313=AXIS2_PLACEMENT_3D('',#440,#355,#356);
#314=AXIS2_PLACEMENT_3D('',#463,#357,#358);
#315=AXIS2_PLACEMENT_3D('',#526,#371,#372);
#316=AXIS2_PLACEMENT_3D('',#531,#373,#374);
#317=AXIS2_PLACEMENT_3D('',#536,#375,#376);
#318=AXIS2_PLACEMENT_3D('',#543,#378,#379);
#319=AXIS2_PLACEMENT_3D('',#548,#380,#381);
#320=AXIS2_PLACEMENT_3D('',#549,#382,#383);
#321=AXIS2_PLACEMENT_3D('',#550,#384,#385);
#322=AXIS2_PLACEMENT_3D('',#552,#386,#387);
#323=AXIS2_PLACEMENT_3D('',#553,#388,#389);
#324=AXIS2_PLACEMENT_3D('',#554,#390,#391);
#325=DIRECTION('',(0.,0.,1.));
#326=DIRECTION('',(1.,0.,0.));
#327=DIRECTION('',(0.,0.,-1.));
#328=DIRECTION('',(-1.,0.,0.));
#329=DIRECTION('',(0.,0.,-1.));
#330=DIRECTION('',(-1.,0.,0.));
#331=DIRECTION('',(0.,0.,-1.));
#332=DIRECTION('',(-1.,0.,0.));
#333=DIRECTION('',(0.,0.,-1.));
#334=DIRECTION('',(-1.,0.,0.));
#335=DIRECTION('',(0.,0.,1.));
#336=DIRECTION('',(1.,0.,0.));
#337=DIRECTION('',(0.,0.,1.));
#338=DIRECTION('',(1.,0.,0.));
#339=DIRECTION('',(0.,0.,-1.));
#340=DIRECTION('',(-1.,0.,0.));
#341=DIRECTION('',(0.,0.,-1.));
#342=DIRECTION('',(1.,0.,0.));
#343=DIRECTION('',(0.,0.,-1.));
#344=DIRECTION('',(1.,0.,0.));
#345=DIRECTION('',(0.,0.,1.));
#346=DIRECTION('',(1.,0.,0.));
#347=DIRECTION('',(1.,-1.1805529048117E-15,0.));
#348=DIRECTION('',(1.17810889038369E-15,1.,0.));
#349=DIRECTION('',(-9.19335280245076E-16,-1.,0.));
#350=DIRECTION('',(1.,-9.18066031218054E-16,0.));
#351=DIRECTION('',(-1.,1.11653938831958E-15,0.));
#352=DIRECTION('',(-1.11759800351011E-15,-1.,0.));
#353=DIRECTION('',(1.51437429658493E-15,1.,0.));
#354=DIRECTION('',(-1.,1.51536200333582E-15,0.));
#355=DIRECTION('',(1.,-1.14481139484951E-15,0.));
#356=DIRECTION('',(1.14530429032051E-15,1.,0.));
#357=DIRECTION('',(0.,-6.12323399573677E-17,-1.));
#358=DIRECTION('',(0.,-1.,0.));
#359=DIRECTION('',(0.,0.,1.));
#360=DIRECTION('',(0.,0.,1.));
#361=DIRECTION('',(0.,0.,1.));
#362=DIRECTION('',(0.,0.,1.));
#363=DIRECTION('',(0.,0.,1.));
#364=DIRECTION('',(0.,0.,1.));
#365=DIRECTION('',(0.,0.,1.));
#366=DIRECTION('',(0.,0.,1.));
#367=DIRECTION('',(0.,0.,1.));
#368=DIRECTION('',(0.,0.,1.));
#369=DIRECTION('',(0.,0.,1.));
#370=DIRECTION('',(0.,0.,1.));
#371=DIRECTION('',(-9.19335280245076E-16,-1.,0.));
#372=DIRECTION('',(1.,-9.19349232159083E-16,0.));
#373=DIRECTION('',(1.,-1.1805529048117E-15,0.));
#374=DIRECTION('',(1.18058774561947E-15,1.,0.));
#375=DIRECTION('',(1.,-1.14481139484951E-15,0.));
#376=DIRECTION('',(1.14480907392744E-15,1.,0.));
#377=DIRECTION('',(0.,0.,1.));
#378=DIRECTION('',(1.51437429658493E-15,1.,0.));
#379=DIRECTION('',(-1.,1.51435938441913E-15,0.));
#380=DIRECTION('',(-1.,1.11653938831958E-15,0.));
#381=DIRECTION('',(-1.11651139722557E-15,-1.,0.));
#382=DIRECTION('',(0.,0.,-1.));
#383=DIRECTION('',(-1.,0.,0.));
#384=DIRECTION('',(0.,0.,1.));
#385=DIRECTION('',(1.,0.,0.));
#386=DIRECTION('',(0.,0.,1.));
#387=DIRECTION('',(1.,0.,0.));
#388=DIRECTION('',(0.,0.,-1.));
#389=DIRECTION('',(-1.,0.,0.));
#390=DIRECTION('',(0.,0.,1.));
#391=DIRECTION('',(1.,0.,2.04989480174512E-16));
#392=CARTESIAN_POINT('',(0.,0.,0.));
#393=CARTESIAN_POINT('',(0.,0.,-2.16840434497101E-16));
#394=CARTESIAN_POINT('',(-4.4,0.,-2.16840434497101E-16));
#395=CARTESIAN_POINT('',(0.,0.,0.499999999999999));
#396=CARTESIAN_POINT('',(-4.4,0.,0.499999999999999));
#397=CARTESIAN_POINT('',(0.,0.,0.));
#398=CARTESIAN_POINT('',(0.,0.,2.40741243048404E-32));
#399=CARTESIAN_POINT('',(-3.5,0.,2.40741243048404E-32));
#400=CARTESIAN_POINT('',(0.,-4.4,-1.0842021724855E-16));
#401=CARTESIAN_POINT('',(0.,0.,-14.5));
#402=CARTESIAN_POINT('',(3.5,0.,-14.5));
#403=CARTESIAN_POINT('',(0.,0.,0.));
#404=CARTESIAN_POINT('',(0.,0.,-16.5));
#405=CARTESIAN_POINT('',(3.1,0.,-16.5));
#406=CARTESIAN_POINT('',(0.,0.,-16.5));
#407=CARTESIAN_POINT('',(2.,0.,-16.5));
#408=CARTESIAN_POINT('',(0.,-3.5,-16.5));
#409=CARTESIAN_POINT('',(-0.553637627432808,6.53598509278859E-16,-18.6099999999996));
#410=CARTESIAN_POINT('',(-0.553637627432808,0.249189063948104,0.990599230327093));
#411=CARTESIAN_POINT('',(-0.553637627432809,-0.485518999073222,0.986169438924264));
#412=CARTESIAN_POINT('',(-4.46354745077289E-16,-0.485518999073222,-18.6099999999996));
#413=CARTESIAN_POINT('',(-0.730537534754403,-0.485518999073222,0.980372283646214));
#414=CARTESIAN_POINT('',(-0.730537534754402,8.15673932199177E-16,-18.6099999999996));
#415=CARTESIAN_POINT('',(-0.730537534754402,0.485518999073223,0.980372283646214));
#416=CARTESIAN_POINT('',(7.3525749270013E-16,0.485518999073222,-18.6099999999996));
#417=CARTESIAN_POINT('',(-0.587349397590361,0.485518999073223,0.985187980386642));
#418=CARTESIAN_POINT('',(-0.587349397590361,0.485518999073223,0.985187980386642));
#419=CARTESIAN_POINT('',(-0.516855976100248,0.419129646642465,0.988945921400594));
#420=CARTESIAN_POINT('',(-0.43862928036875,0.36073824181132,0.992014265529152));
#421=CARTESIAN_POINT('',(-0.357697865270195,0.307486463534261,0.994326163169303));
#422=CARTESIAN_POINT('',(-0.277020569245081,0.254401892176027,0.996630801609976));
#423=CARTESIAN_POINT('',(-0.193240747755288,0.205779285591429,0.998206062977734));
#424=CARTESIAN_POINT('',(-0.107379929371878,0.161514941131064,0.999040835149467));
#425=CARTESIAN_POINT('',(0.0345188511405092,0.0883610087860679,1.00042043011961));
#426=CARTESIAN_POINT('',(0.184034558974272,0.0280643635191255,0.999766248928464));
#427=CARTESIAN_POINT('',(0.337465245597776,-0.0159870250231702,0.997089575534772));
#428=CARTESIAN_POINT('',(0.337465245597776,-0.0159870250231702,0.997089575534772));
#429=CARTESIAN_POINT('',(0.337465245597776,-0.0159870250231702,0.997089575534772));
#430=CARTESIAN_POINT('',(0.373417603688713,-0.0265145110939974,0.996462201722416));
#431=CARTESIAN_POINT('',(0.409751473604623,-0.0357993869304103,0.995721765020237));
#432=CARTESIAN_POINT('',(0.446318093720484,-0.0439204883713252,0.994871107709934));
#433=CARTESIAN_POINT('',(0.482881154940405,-0.0520407994150185,0.994020533191009));
#434=CARTESIAN_POINT('',(0.519713888759361,-0.0590065358949322,0.99305892515062));
#435=CARTESIAN_POINT('',(0.556694235051218,-0.064908224920636,0.991989145262764));
#436=CARTESIAN_POINT('',(0.620731321302328,-0.075127895828624,0.990136658906697));
#437=CARTESIAN_POINT('',(0.685321022599799,-0.0821763909696126,0.987956290351921));
#438=CARTESIAN_POINT('',(0.75,-0.0865384615384636,0.98546149226076));
#439=CARTESIAN_POINT('',(0.75,-0.0865384615384636,0.98546149226076));
#440=CARTESIAN_POINT('',(0.75,-8.58608546137133E-16,-18.6099999999996));
#441=CARTESIAN_POINT('',(0.75,-0.275949953660802,0.983709491137057));
#442=CARTESIAN_POINT('',(0.75,-0.275949953660802,0.983709491137057));
#443=CARTESIAN_POINT('',(0.706746862902208,-0.275184411411283,0.985375898622909));
#444=CARTESIAN_POINT('',(0.663505684811061,-0.271672830077533,0.9869367064462));
#445=CARTESIAN_POINT('',(0.620558747136315,-0.266408950649796,0.988368123707801));
#446=CARTESIAN_POINT('',(0.577648953031855,-0.26114962379987,0.989798302977811));
#447=CARTESIAN_POINT('',(0.534935579708274,-0.254111231361749,0.991103090490083));
#448=CARTESIAN_POINT('',(0.492494452858182,-0.245844536048021,0.992273074263592));
#449=CARTESIAN_POINT('',(0.435302172464566,-0.234704606658746,0.993849706294754));
#450=CARTESIAN_POINT('',(0.378520681125487,-0.221318729894799,0.995183948499175));
#451=CARTESIAN_POINT('',(0.322173308619092,-0.206441149212237,0.996266508724322));
#452=CARTESIAN_POINT('',(0.322173308619092,-0.206441149212237,0.996266508724322));
#453=CARTESIAN_POINT('',(0.322173308619092,-0.206441149212237,0.996266508724322));
#454=CARTESIAN_POINT('',(0.232934228865653,-0.182693535473275,0.99798294638667));
#455=CARTESIAN_POINT('',(0.144995559730407,-0.153318887302564,0.999082082421064));
#456=CARTESIAN_POINT('',(0.0593756001382824,-0.118684924849045,0.999550949135017));
#457=CARTESIAN_POINT('',(-0.0262360558553931,-0.0840543212679002,1.00001977037732));
#458=CARTESIAN_POINT('',(-0.109764529574811,-0.0439007935028906,0.999861124509774));
#459=CARTESIAN_POINT('',(-0.190697476432007,0.000574938300716631,0.999072750693017));
#460=CARTESIAN_POINT('',(-0.319231629390991,0.0712093429109238,0.997820690009612));
#461=CARTESIAN_POINT('',(-0.443529453566502,0.152394623523147,0.994939921300128));
#462=CARTESIAN_POINT('',(-0.553637627432808,0.249189063948104,0.990599230327093));
#463=CARTESIAN_POINT('',(0.,0.,-18.6099999999996));
#464=CARTESIAN_POINT('',(0.322173308619092,-0.206441149212237,-9.43399999999999));
#465=CARTESIAN_POINT('',(0.322173308619092,-0.206441149212237,1.06));
#466=CARTESIAN_POINT('',(-0.553637627432808,0.249189063948104,1.06));
#467=CARTESIAN_POINT('',(-0.447289156626506,0.155699721964785,1.06));
#468=CARTESIAN_POINT('',(-0.316265060240964,0.0674235403151078,1.06));
#469=CARTESIAN_POINT('',(-0.161294067947815,-0.0153549180542461,1.06));
#470=CARTESIAN_POINT('',(-0.00590824837812798,-0.0983549582947186,1.06));
#471=CARTESIAN_POINT('',(0.155004633920296,-0.161955514365155,1.06));
#472=CARTESIAN_POINT('',(0.322173308619092,-0.206441149212237,1.06));
#473=CARTESIAN_POINT('',(-0.553637627432808,0.249189063948104,1.06));
#474=CARTESIAN_POINT('',(-0.553637627432808,0.249189063948104,-9.43399999999999));
#475=CARTESIAN_POINT('',(-0.553637627432808,0.249189063948104,-9.43399999999999));
#476=CARTESIAN_POINT('',(-0.447289156626506,0.155699721964785,-9.43399999999999));
#477=CARTESIAN_POINT('',(-0.316265060240964,0.0674235403151078,-9.43399999999999));
#478=CARTESIAN_POINT('',(-0.161294067947815,-0.0153549180542461,-9.43399999999999));
#479=CARTESIAN_POINT('',(-0.00590824837812798,-0.0983549582947186,-9.43399999999999));
#480=CARTESIAN_POINT('',(0.155004633920296,-0.161955514365155,-9.43399999999999));
#481=CARTESIAN_POINT('',(0.322173308619092,-0.206441149212237,-9.43399999999999));
#482=CARTESIAN_POINT('',(0.75,-0.275949953660802,-9.43399999999999));
#483=CARTESIAN_POINT('',(0.75,-0.275949953660802,1.06));
#484=CARTESIAN_POINT('',(0.322173308619092,-0.206441149212237,1.06));
#485=CARTESIAN_POINT('',(0.489341983317887,-0.250579240037075,1.06));
#486=CARTESIAN_POINT('',(0.632182576459685,-0.273864689527345,1.06));
#487=CARTESIAN_POINT('',(0.75,-0.275949953660802,1.06));
#488=CARTESIAN_POINT('',(0.322173308619092,-0.206441149212237,-9.43399999999999));
#489=CARTESIAN_POINT('',(0.489341983317887,-0.250579240037075,-9.43399999999999));
#490=CARTESIAN_POINT('',(0.632182576459685,-0.273864689527345,-9.43399999999999));
#491=CARTESIAN_POINT('',(0.75,-0.275949953660802,-9.43399999999999));
#492=CARTESIAN_POINT('',(0.337465245597776,-0.0159870250231702,-9.43399999999999));
#493=CARTESIAN_POINT('',(0.337465245597776,-0.0159870250231702,1.06));
#494=CARTESIAN_POINT('',(0.75,-0.0865384615384636,1.06));
#495=CARTESIAN_POINT('',(0.600556070435588,-0.0764596848934215,1.06));
#496=CARTESIAN_POINT('',(0.463276181649676,-0.0528266913809094,1.06));
#497=CARTESIAN_POINT('',(0.337465245597776,-0.0159870250231702,1.06));
#498=CARTESIAN_POINT('',(0.75,-0.0865384615384636,1.06));
#499=CARTESIAN_POINT('',(0.75,-0.0865384615384636,-9.43399999999999));
#500=CARTESIAN_POINT('',(0.75,-0.0865384615384636,-9.43399999999999));
#501=CARTESIAN_POINT('',(0.600556070435588,-0.0764596848934215,-9.43399999999999));
#502=CARTESIAN_POINT('',(0.463276181649676,-0.0528266913809094,-9.43399999999999));
#503=CARTESIAN_POINT('',(0.337465245597776,-0.0159870250231702,-9.43399999999999));
#504=CARTESIAN_POINT('',(-0.587349397590361,0.485518999073223,-9.43399999999999));
#505=CARTESIAN_POINT('',(-0.587349397590361,0.485518999073223,1.06));
#506=CARTESIAN_POINT('',(0.337465245597776,-0.0159870250231702,1.06));
#507=CARTESIAN_POINT('',(0.159522706209453,0.0351019462465249,1.06));
#508=CARTESIAN_POINT('',(-0.0135542168674698,0.107738646895275,1.06));
#509=CARTESIAN_POINT('',(-0.350671918443002,0.295412418906399,1.06));
#510=CARTESIAN_POINT('',(-0.485866543095458,0.389944392956447,1.06));
#511=CARTESIAN_POINT('',(-0.587349397590361,0.485518999073223,1.06));
#512=CARTESIAN_POINT('',(0.337465245597776,-0.0159870250231702,-9.43399999999999));
#513=CARTESIAN_POINT('',(0.159522706209453,0.0351019462465249,-9.43399999999999));
#514=CARTESIAN_POINT('',(-0.0135542168674698,0.107738646895275,-9.43399999999999));
#515=CARTESIAN_POINT('',(-0.350671918443002,0.295412418906399,-9.43399999999999));
#516=CARTESIAN_POINT('',(-0.485866543095458,0.389944392956447,-9.43399999999999));
#517=CARTESIAN_POINT('',(-0.587349397590361,0.485518999073223,-9.43399999999999));
#518=CARTESIAN_POINT('',(-0.553637627432809,-0.485518999073222,-9.43399999999999));
#519=CARTESIAN_POINT('',(-0.553637627432809,-0.485518999073222,1.06));
#520=CARTESIAN_POINT('',(-0.730537534754403,-0.485518999073222,1.06));
#521=CARTESIAN_POINT('',(-0.671570898980538,-0.485518999073222,1.06));
#522=CARTESIAN_POINT('',(-0.612604263206673,-0.485518999073222,1.06));
#523=CARTESIAN_POINT('',(-0.553637627432809,-0.485518999073222,1.06));
#524=CARTESIAN_POINT('',(-0.730537534754403,-0.485518999073222,1.06));
#525=CARTESIAN_POINT('',(-0.730537534754403,-0.485518999073222,-9.43399999999999));
#526=CARTESIAN_POINT('',(-0.730537534754403,-0.485518999073222,-9.43399999999999));
#527=CARTESIAN_POINT('',(-0.553637627432809,-0.485518999073222,1.06));
#528=CARTESIAN_POINT('',(-0.553637627432808,-0.240616311399446,1.06));
#529=CARTESIAN_POINT('',(-0.553637627432808,0.00428637627432889,1.06));
#530=CARTESIAN_POINT('',(-0.553637627432808,0.249189063948104,1.06));
#531=CARTESIAN_POINT('',(-0.553637627432809,-0.485518999073222,-9.43399999999999));
#532=CARTESIAN_POINT('',(0.75,-0.275949953660802,1.06));
#533=CARTESIAN_POINT('',(0.75,-0.212812789620022,1.06));
#534=CARTESIAN_POINT('',(0.75,-0.149675625579243,1.06));
#535=CARTESIAN_POINT('',(0.75,-0.0865384615384636,1.06));
#536=CARTESIAN_POINT('',(0.75,-0.275949953660802,-9.43399999999999));
#537=CARTESIAN_POINT('',(-0.730537534754402,0.485518999073223,-9.43399999999999));
#538=CARTESIAN_POINT('',(-0.730537534754402,0.485518999073223,1.06));
#539=CARTESIAN_POINT('',(-0.587349397590361,0.485518999073223,1.06));
#540=CARTESIAN_POINT('',(-0.635078776645041,0.485518999073223,1.06));
#541=CARTESIAN_POINT('',(-0.682808155699722,0.485518999073223,1.06));
#542=CARTESIAN_POINT('',(-0.730537534754402,0.485518999073223,1.06));
#543=CARTESIAN_POINT('',(-0.587349397590361,0.485518999073223,-9.43399999999999));
#544=CARTESIAN_POINT('',(-0.730537534754402,0.485518999073223,1.06));
#545=CARTESIAN_POINT('',(-0.730537534754402,0.161839666357742,1.06));
#546=CARTESIAN_POINT('',(-0.730537534754403,-0.16183966635774,1.06));
#547=CARTESIAN_POINT('',(-0.730537534754403,-0.485518999073222,1.06));
#548=CARTESIAN_POINT('',(-0.730537534754402,0.485518999073223,-9.43399999999999));
#549=CARTESIAN_POINT('',(-0.140331204539748,-0.0264171470129676,1.06));
#550=CARTESIAN_POINT('',(0.,0.,0.));
#551=CARTESIAN_POINT('',(2.,0.,0.));
#552=CARTESIAN_POINT('',(0.,-4.4,-1.0842021724855E-16));
#553=CARTESIAN_POINT('',(0.,0.,146.85));
#554=CARTESIAN_POINT('',(0.,0.,-16.5));
#555=MECHANICAL_DESIGN_GEOMETRIC_PRESENTATION_REPRESENTATION('',(#24),#556);
#556=(
GEOMETRIC_REPRESENTATION_CONTEXT(3)
GLOBAL_UNCERTAINTY_ASSIGNED_CONTEXT((#557))
GLOBAL_UNIT_ASSIGNED_CONTEXT((#563,#559,#558))
REPRESENTATION_CONTEXT('28786_7_KDS_KES-VS_7','TOP_LEVEL_ASSEMBLY_PART')
);
#557=UNCERTAINTY_MEASURE_WITH_UNIT(LENGTH_MEASURE(0.02),#563,
'DISTANCE_ACCURACY_VALUE','Maximum Tolerance applied to model');
#558=(
NAMED_UNIT(*)
SI_UNIT($,.STERADIAN.)
SOLID_ANGLE_UNIT()
);
#559=(
CONVERSION_BASED_UNIT('DEGREE',#561)
NAMED_UNIT(#560)
PLANE_ANGLE_UNIT()
);
#560=DIMENSIONAL_EXPONENTS(0.,0.,0.,0.,0.,0.,0.);
#561=PLANE_ANGLE_MEASURE_WITH_UNIT(PLANE_ANGLE_MEASURE(0.0174532925),#562);
#562=(
NAMED_UNIT(*)
PLANE_ANGLE_UNIT()
SI_UNIT($,.RADIAN.)
);
#563=(
LENGTH_UNIT()
NAMED_UNIT(*)
SI_UNIT(.MILLI.,.METRE.)
);
ENDSEC;
END-ISO-10303-21;
