ISO-10303-21;
HEADER;
/* Generated by software containing ST-Developer
 * from STEP Tools, Inc. (www.steptools.com) 
 */
/* OPTION: using custom schema-name function */

FILE_DESCRIPTION(
/* description */ (''),
/* implementation_level */ '2;1');

FILE_NAME(
/* name */ '28719.6_KDS-DE-FB2-A.stp',
/* time_stamp */ '2018-07-12T10:04:17+02:00',
/* author */ (''),
/* organization */ (''),
/* preprocessor_version */ 'ST-DEVELOPER v16',
/* originating_system */ 'SIEMENS PLM Software NX 10.0',
/* authorisation */ '');

FILE_SCHEMA (('AP203_CONFIGURATION_CONTROLLED_3D_DESIGN_OF_MECHANICAL_PARTS_AND_ASSEMBLIES_MIM_LF { 1 0 10303 403 2 1 2}'));
ENDSEC;

DATA;
#10=PROPERTY_DEFINITION_REPRESENTATION(#14,#12);
#11=PROPERTY_DEFINITION_REPRESENTATION(#15,#13);
#12=REPRESENTATION('',(#16),#645);
#13=REPRESENTATION('',(#17),#645);
#14=PROPERTY_DEFINITION('pmi validation property','',#89);
#15=PROPERTY_DEFINITION('pmi validation property','',#89);
#16=VALUE_REPRESENTATION_ITEM('number of annotations',COUNT_MEASURE(0.));
#17=VALUE_REPRESENTATION_ITEM('number of views',COUNT_MEASURE(0.));
#18=SHAPE_REPRESENTATION_RELATIONSHIP('None',
'relationship between 28719.6_KDS-DE-FB2-A-None and 28719.6_KDS-DE-FB2-A-None',
#100,#19);
#19=ADVANCED_BREP_SHAPE_REPRESENTATION('28719.6_KDS-DE-FB2-A-None',(#101),#645);
#20=CC_DESIGN_APPROVAL(#32,(#90));
#21=CC_DESIGN_APPROVAL(#33,(#92));
#22=CC_DESIGN_APPROVAL(#34,(#39));
#23=APPROVAL_PERSON_ORGANIZATION(#77,#32,#26);
#24=APPROVAL_PERSON_ORGANIZATION(#78,#33,#27);
#25=APPROVAL_PERSON_ORGANIZATION(#79,#34,#28);
#26=APPROVAL_ROLE('approver');
#27=APPROVAL_ROLE('approver');
#28=APPROVAL_ROLE('approver');
#29=APPROVAL_DATE_TIME(#47,#32);
#30=APPROVAL_DATE_TIME(#48,#33);
#31=APPROVAL_DATE_TIME(#49,#34);
#32=APPROVAL(#35,' ');
#33=APPROVAL(#36,' ');
#34=APPROVAL(#37,' ');
#35=APPROVAL_STATUS('not_yet_approved');
#36=APPROVAL_STATUS('not_yet_approved');
#37=APPROVAL_STATUS('not_yet_approved');
#38=CC_DESIGN_SECURITY_CLASSIFICATION(#39,(#92));
#39=SECURITY_CLASSIFICATION(' ',' ',#40);
#40=SECURITY_CLASSIFICATION_LEVEL('confidential');
#41=CC_DESIGN_DATE_AND_TIME_ASSIGNMENT(#45,#43,(#90));
#42=CC_DESIGN_DATE_AND_TIME_ASSIGNMENT(#46,#44,(#39));
#43=DATE_TIME_ROLE('creation_date');
#44=DATE_TIME_ROLE('classification_date');
#45=DATE_AND_TIME(#60,#50);
#46=DATE_AND_TIME(#61,#51);
#47=DATE_AND_TIME(#62,#52);
#48=DATE_AND_TIME(#63,#53);
#49=DATE_AND_TIME(#64,#54);
#50=LOCAL_TIME(0,0,0.,#55);
#51=LOCAL_TIME(0,0,0.,#56);
#52=LOCAL_TIME(0,0,0.,#57);
#53=LOCAL_TIME(0,0,0.,#58);
#54=LOCAL_TIME(0,0,0.,#59);
#55=COORDINATED_UNIVERSAL_TIME_OFFSET(0,0,.BEHIND.);
#56=COORDINATED_UNIVERSAL_TIME_OFFSET(0,0,.BEHIND.);
#57=COORDINATED_UNIVERSAL_TIME_OFFSET(0,0,.BEHIND.);
#58=COORDINATED_UNIVERSAL_TIME_OFFSET(0,0,.BEHIND.);
#59=COORDINATED_UNIVERSAL_TIME_OFFSET(0,0,.BEHIND.);
#60=CALENDAR_DATE(0,1,1);
#61=CALENDAR_DATE(0,1,1);
#62=CALENDAR_DATE(0,1,1);
#63=CALENDAR_DATE(0,1,1);
#64=CALENDAR_DATE(0,1,1);
#65=CC_DESIGN_PERSON_AND_ORGANIZATION_ASSIGNMENT(#73,#69,(#90,#92));
#66=CC_DESIGN_PERSON_AND_ORGANIZATION_ASSIGNMENT(#74,#70,(#94));
#67=CC_DESIGN_PERSON_AND_ORGANIZATION_ASSIGNMENT(#75,#71,(#92));
#68=CC_DESIGN_PERSON_AND_ORGANIZATION_ASSIGNMENT(#76,#72,(#39));
#69=PERSON_AND_ORGANIZATION_ROLE('creator');
#70=PERSON_AND_ORGANIZATION_ROLE('design_owner');
#71=PERSON_AND_ORGANIZATION_ROLE('design_supplier');
#72=PERSON_AND_ORGANIZATION_ROLE('classification_officer');
#73=PERSON_AND_ORGANIZATION(#87,#80);
#74=PERSON_AND_ORGANIZATION(#87,#81);
#75=PERSON_AND_ORGANIZATION(#87,#82);
#76=PERSON_AND_ORGANIZATION(#87,#83);
#77=PERSON_AND_ORGANIZATION(#87,#84);
#78=PERSON_AND_ORGANIZATION(#87,#85);
#79=PERSON_AND_ORGANIZATION(#87,#86);
#80=ORGANIZATION(' ',' ',' ');
#81=ORGANIZATION(' ',' ',' ');
#82=ORGANIZATION(' ',' ',' ');
#83=ORGANIZATION(' ',' ',' ');
#84=ORGANIZATION(' ',' ',' ');
#85=ORGANIZATION(' ',' ',' ');
#86=ORGANIZATION(' ',' ',' ');
#87=PERSON(' ',' ',' ',(' '),$,$);
#88=SHAPE_DEFINITION_REPRESENTATION(#89,#100);
#89=PRODUCT_DEFINITION_SHAPE('','',#90);
#90=PRODUCT_DEFINITION(' ','',#92,#91);
#91=DESIGN_CONTEXT('',#99,'design');
#92=PRODUCT_DEFINITION_FORMATION_WITH_SPECIFIED_SOURCE(' ',' ',#94,
 .NOT_KNOWN.);
#93=PRODUCT_RELATED_PRODUCT_CATEGORY('detail','',(#94));
#94=PRODUCT('28719.6_KDS-DE-FB2-A','28719.6_KDS-DE-FB2-A',' ',(#97));
#95=PRODUCT_CATEGORY('part',' ');
#96=PRODUCT_CATEGORY(' ','');
#97=MECHANICAL_CONTEXT(' ',#99,'mechanical');
#98=APPLICATION_PROTOCOL_DEFINITION('international standard',
'config_control_design',2010,#99);
#99=APPLICATION_CONTEXT(
'configuration controlled 3D designs of mechanical parts and assemblie
s');
#100=SHAPE_REPRESENTATION('28719.6_KDS-DE-FB2-A-None',(#425),#645);
#101=MANIFOLD_SOLID_BREP('',#102);
#102=CLOSED_SHELL('',(#123,#124,#125,#126,#127,#128,#129,#130,#131,#132,
#133,#134,#135,#136,#137,#138,#139,#140,#141,#142));
#103=CYLINDRICAL_SURFACE('',#451,0.2);
#104=CYLINDRICAL_SURFACE('',#453,0.2);
#105=TOROIDAL_SURFACE('',#449,5.69826224211899,0.2);
#106=TOROIDAL_SURFACE('',#454,5.69826224211899,0.2);
#107=FACE_BOUND('',#180,.T.);
#108=FACE_BOUND('',#181,.T.);
#109=FACE_BOUND('',#186,.T.);
#110=FACE_BOUND('',#187,.T.);
#111=CONICAL_SURFACE('',#430,5.5,0.5);
#112=CONICAL_SURFACE('',#433,5.5,0.5);
#113=CIRCLE('',#428,5.49127313220924);
#114=CIRCLE('',#429,5.49826985750616);
#115=CIRCLE('',#431,5.49127313220924);
#116=CIRCLE('',#432,5.49826985750616);
#117=CIRCLE('',#435,5.69826224211899);
#118=CIRCLE('',#436,5.69826224211899);
#119=CIRCLE('',#447,0.2);
#120=CIRCLE('',#448,0.2);
#121=CIRCLE('',#450,0.2);
#122=CIRCLE('',#452,0.2);
#123=ADVANCED_FACE('',(#157),#143,.F.);
#124=ADVANCED_FACE('',(#158),#144,.F.);
#125=ADVANCED_FACE('',(#159),#111,.F.);
#126=ADVANCED_FACE('',(#160),#112,.F.);
#127=ADVANCED_FACE('',(#161),#145,.T.);
#128=ADVANCED_FACE('',(#107,#108),#146,.F.);
#129=ADVANCED_FACE('',(#162),#147,.T.);
#130=ADVANCED_FACE('',(#163),#148,.T.);
#131=ADVANCED_FACE('',(#164),#149,.T.);
#132=ADVANCED_FACE('',(#165),#150,.T.);
#133=ADVANCED_FACE('',(#109,#110),#151,.T.);
#134=ADVANCED_FACE('',(#166),#152,.F.);
#135=ADVANCED_FACE('',(#167),#153,.F.);
#136=ADVANCED_FACE('',(#168),#154,.F.);
#137=ADVANCED_FACE('',(#169),#155,.F.);
#138=ADVANCED_FACE('',(#170),#105,.T.);
#139=ADVANCED_FACE('',(#171),#103,.T.);
#140=ADVANCED_FACE('',(#172),#104,.T.);
#141=ADVANCED_FACE('',(#173),#106,.T.);
#142=ADVANCED_FACE('',(#174),#156,.T.);
#143=PLANE('',#426);
#144=PLANE('',#427);
#145=PLANE('',#434);
#146=PLANE('',#437);
#147=PLANE('',#438);
#148=PLANE('',#439);
#149=PLANE('',#440);
#150=PLANE('',#441);
#151=PLANE('',#442);
#152=PLANE('',#443);
#153=PLANE('',#444);
#154=PLANE('',#445);
#155=PLANE('',#446);
#156=PLANE('',#455);
#157=FACE_OUTER_BOUND('',#175,.T.);
#158=FACE_OUTER_BOUND('',#176,.T.);
#159=FACE_OUTER_BOUND('',#177,.T.);
#160=FACE_OUTER_BOUND('',#178,.T.);
#161=FACE_OUTER_BOUND('',#179,.T.);
#162=FACE_OUTER_BOUND('',#182,.T.);
#163=FACE_OUTER_BOUND('',#183,.T.);
#164=FACE_OUTER_BOUND('',#184,.T.);
#165=FACE_OUTER_BOUND('',#185,.T.);
#166=FACE_OUTER_BOUND('',#188,.T.);
#167=FACE_OUTER_BOUND('',#189,.T.);
#168=FACE_OUTER_BOUND('',#190,.T.);
#169=FACE_OUTER_BOUND('',#191,.T.);
#170=FACE_OUTER_BOUND('',#192,.T.);
#171=FACE_OUTER_BOUND('',#193,.T.);
#172=FACE_OUTER_BOUND('',#194,.T.);
#173=FACE_OUTER_BOUND('',#195,.T.);
#174=FACE_OUTER_BOUND('',#196,.T.);
#175=EDGE_LOOP('',(#197,#198,#199,#200));
#176=EDGE_LOOP('',(#201,#202,#203,#204));
#177=EDGE_LOOP('',(#205,#206,#207,#208));
#178=EDGE_LOOP('',(#209,#210,#211,#212));
#179=EDGE_LOOP('',(#213,#214,#215,#216));
#180=EDGE_LOOP('',(#217,#218,#219,#220));
#181=EDGE_LOOP('',(#221,#222,#223,#224));
#182=EDGE_LOOP('',(#225,#226,#227,#228));
#183=EDGE_LOOP('',(#229,#230,#231,#232));
#184=EDGE_LOOP('',(#233,#234,#235,#236));
#185=EDGE_LOOP('',(#237,#238,#239,#240));
#186=EDGE_LOOP('',(#241,#242,#243,#244));
#187=EDGE_LOOP('',(#245,#246,#247,#248));
#188=EDGE_LOOP('',(#249,#250,#251,#252));
#189=EDGE_LOOP('',(#253,#254,#255,#256));
#190=EDGE_LOOP('',(#257,#258,#259,#260));
#191=EDGE_LOOP('',(#261,#262,#263,#264));
#192=EDGE_LOOP('',(#265,#266,#267,#268));
#193=EDGE_LOOP('',(#269,#270,#271,#272));
#194=EDGE_LOOP('',(#273,#274,#275,#276));
#195=EDGE_LOOP('',(#277,#278,#279,#280));
#196=EDGE_LOOP('',(#281,#282,#283,#284));
#197=ORIENTED_EDGE('',*,*,#313,.F.);
#198=ORIENTED_EDGE('',*,*,#314,.F.);
#199=ORIENTED_EDGE('',*,*,#315,.T.);
#200=ORIENTED_EDGE('',*,*,#316,.T.);
#201=ORIENTED_EDGE('',*,*,#317,.F.);
#202=ORIENTED_EDGE('',*,*,#318,.F.);
#203=ORIENTED_EDGE('',*,*,#319,.T.);
#204=ORIENTED_EDGE('',*,*,#320,.T.);
#205=ORIENTED_EDGE('',*,*,#321,.F.);
#206=ORIENTED_EDGE('',*,*,#320,.F.);
#207=ORIENTED_EDGE('',*,*,#322,.T.);
#208=ORIENTED_EDGE('',*,*,#314,.T.);
#209=ORIENTED_EDGE('',*,*,#323,.F.);
#210=ORIENTED_EDGE('',*,*,#316,.F.);
#211=ORIENTED_EDGE('',*,*,#324,.T.);
#212=ORIENTED_EDGE('',*,*,#318,.T.);
#213=ORIENTED_EDGE('',*,*,#325,.T.);
#214=ORIENTED_EDGE('',*,*,#326,.T.);
#215=ORIENTED_EDGE('',*,*,#327,.T.);
#216=ORIENTED_EDGE('',*,*,#328,.T.);
#217=ORIENTED_EDGE('',*,*,#329,.T.);
#218=ORIENTED_EDGE('',*,*,#330,.T.);
#219=ORIENTED_EDGE('',*,*,#331,.T.);
#220=ORIENTED_EDGE('',*,*,#332,.T.);
#221=ORIENTED_EDGE('',*,*,#333,.F.);
#222=ORIENTED_EDGE('',*,*,#334,.F.);
#223=ORIENTED_EDGE('',*,*,#335,.F.);
#224=ORIENTED_EDGE('',*,*,#336,.F.);
#225=ORIENTED_EDGE('',*,*,#337,.F.);
#226=ORIENTED_EDGE('',*,*,#338,.T.);
#227=ORIENTED_EDGE('',*,*,#339,.T.);
#228=ORIENTED_EDGE('',*,*,#333,.T.);
#229=ORIENTED_EDGE('',*,*,#340,.F.);
#230=ORIENTED_EDGE('',*,*,#341,.T.);
#231=ORIENTED_EDGE('',*,*,#337,.T.);
#232=ORIENTED_EDGE('',*,*,#336,.T.);
#233=ORIENTED_EDGE('',*,*,#342,.F.);
#234=ORIENTED_EDGE('',*,*,#343,.T.);
#235=ORIENTED_EDGE('',*,*,#340,.T.);
#236=ORIENTED_EDGE('',*,*,#335,.T.);
#237=ORIENTED_EDGE('',*,*,#339,.F.);
#238=ORIENTED_EDGE('',*,*,#344,.T.);
#239=ORIENTED_EDGE('',*,*,#342,.T.);
#240=ORIENTED_EDGE('',*,*,#334,.T.);
#241=ORIENTED_EDGE('',*,*,#345,.T.);
#242=ORIENTED_EDGE('',*,*,#346,.T.);
#243=ORIENTED_EDGE('',*,*,#347,.T.);
#244=ORIENTED_EDGE('',*,*,#348,.T.);
#245=ORIENTED_EDGE('',*,*,#341,.F.);
#246=ORIENTED_EDGE('',*,*,#343,.F.);
#247=ORIENTED_EDGE('',*,*,#344,.F.);
#248=ORIENTED_EDGE('',*,*,#338,.F.);
#249=ORIENTED_EDGE('',*,*,#346,.F.);
#250=ORIENTED_EDGE('',*,*,#349,.T.);
#251=ORIENTED_EDGE('',*,*,#325,.F.);
#252=ORIENTED_EDGE('',*,*,#350,.F.);
#253=ORIENTED_EDGE('',*,*,#345,.F.);
#254=ORIENTED_EDGE('',*,*,#351,.T.);
#255=ORIENTED_EDGE('',*,*,#326,.F.);
#256=ORIENTED_EDGE('',*,*,#349,.F.);
#257=ORIENTED_EDGE('',*,*,#348,.F.);
#258=ORIENTED_EDGE('',*,*,#352,.T.);
#259=ORIENTED_EDGE('',*,*,#327,.F.);
#260=ORIENTED_EDGE('',*,*,#351,.F.);
#261=ORIENTED_EDGE('',*,*,#347,.F.);
#262=ORIENTED_EDGE('',*,*,#350,.T.);
#263=ORIENTED_EDGE('',*,*,#328,.F.);
#264=ORIENTED_EDGE('',*,*,#352,.F.);
#265=ORIENTED_EDGE('',*,*,#353,.F.);
#266=ORIENTED_EDGE('',*,*,#322,.F.);
#267=ORIENTED_EDGE('',*,*,#354,.F.);
#268=ORIENTED_EDGE('',*,*,#332,.F.);
#269=ORIENTED_EDGE('',*,*,#354,.T.);
#270=ORIENTED_EDGE('',*,*,#319,.F.);
#271=ORIENTED_EDGE('',*,*,#355,.F.);
#272=ORIENTED_EDGE('',*,*,#329,.F.);
#273=ORIENTED_EDGE('',*,*,#353,.T.);
#274=ORIENTED_EDGE('',*,*,#331,.F.);
#275=ORIENTED_EDGE('',*,*,#356,.F.);
#276=ORIENTED_EDGE('',*,*,#315,.F.);
#277=ORIENTED_EDGE('',*,*,#355,.T.);
#278=ORIENTED_EDGE('',*,*,#324,.F.);
#279=ORIENTED_EDGE('',*,*,#356,.T.);
#280=ORIENTED_EDGE('',*,*,#330,.F.);
#281=ORIENTED_EDGE('',*,*,#317,.T.);
#282=ORIENTED_EDGE('',*,*,#321,.T.);
#283=ORIENTED_EDGE('',*,*,#313,.T.);
#284=ORIENTED_EDGE('',*,*,#323,.T.);
#285=VERTEX_POINT('',#554);
#286=VERTEX_POINT('',#555);
#287=VERTEX_POINT('',#557);
#288=VERTEX_POINT('',#559);
#289=VERTEX_POINT('',#563);
#290=VERTEX_POINT('',#564);
#291=VERTEX_POINT('',#566);
#292=VERTEX_POINT('',#568);
#293=VERTEX_POINT('',#578);
#294=VERTEX_POINT('',#579);
#295=VERTEX_POINT('',#581);
#296=VERTEX_POINT('',#583);
#297=VERTEX_POINT('',#587);
#298=VERTEX_POINT('',#588);
#299=VERTEX_POINT('',#590);
#300=VERTEX_POINT('',#592);
#301=VERTEX_POINT('',#595);
#302=VERTEX_POINT('',#596);
#303=VERTEX_POINT('',#598);
#304=VERTEX_POINT('',#600);
#305=VERTEX_POINT('',#604);
#306=VERTEX_POINT('',#606);
#307=VERTEX_POINT('',#610);
#308=VERTEX_POINT('',#614);
#309=VERTEX_POINT('',#620);
#310=VERTEX_POINT('',#621);
#311=VERTEX_POINT('',#623);
#312=VERTEX_POINT('',#625);
#313=EDGE_CURVE('',#285,#286,#357,.T.);
#314=EDGE_CURVE('',#287,#285,#358,.T.);
#315=EDGE_CURVE('',#287,#288,#359,.T.);
#316=EDGE_CURVE('',#288,#286,#360,.T.);
#317=EDGE_CURVE('',#289,#290,#361,.T.);
#318=EDGE_CURVE('',#291,#289,#362,.T.);
#319=EDGE_CURVE('',#291,#292,#363,.T.);
#320=EDGE_CURVE('',#292,#290,#364,.T.);
#321=EDGE_CURVE('',#290,#285,#113,.T.);
#322=EDGE_CURVE('',#292,#287,#114,.T.);
#323=EDGE_CURVE('',#286,#289,#115,.T.);
#324=EDGE_CURVE('',#288,#291,#116,.T.);
#325=EDGE_CURVE('',#293,#294,#365,.T.);
#326=EDGE_CURVE('',#294,#295,#366,.T.);
#327=EDGE_CURVE('',#295,#296,#367,.T.);
#328=EDGE_CURVE('',#296,#293,#368,.T.);
#329=EDGE_CURVE('',#297,#298,#369,.T.);
#330=EDGE_CURVE('',#298,#299,#117,.T.);
#331=EDGE_CURVE('',#299,#300,#370,.T.);
#332=EDGE_CURVE('',#300,#297,#118,.T.);
#333=EDGE_CURVE('',#301,#302,#371,.T.);
#334=EDGE_CURVE('',#303,#301,#372,.T.);
#335=EDGE_CURVE('',#304,#303,#373,.T.);
#336=EDGE_CURVE('',#302,#304,#374,.T.);
#337=EDGE_CURVE('',#305,#302,#375,.T.);
#338=EDGE_CURVE('',#305,#306,#376,.T.);
#339=EDGE_CURVE('',#306,#301,#377,.T.);
#340=EDGE_CURVE('',#307,#304,#378,.T.);
#341=EDGE_CURVE('',#307,#305,#379,.T.);
#342=EDGE_CURVE('',#308,#303,#380,.T.);
#343=EDGE_CURVE('',#308,#307,#381,.T.);
#344=EDGE_CURVE('',#306,#308,#382,.T.);
#345=EDGE_CURVE('',#309,#310,#383,.T.);
#346=EDGE_CURVE('',#310,#311,#384,.T.);
#347=EDGE_CURVE('',#311,#312,#385,.T.);
#348=EDGE_CURVE('',#312,#309,#386,.T.);
#349=EDGE_CURVE('',#310,#294,#387,.T.);
#350=EDGE_CURVE('',#311,#293,#388,.T.);
#351=EDGE_CURVE('',#309,#295,#389,.T.);
#352=EDGE_CURVE('',#312,#296,#390,.T.);
#353=EDGE_CURVE('',#287,#300,#119,.T.);
#354=EDGE_CURVE('',#297,#292,#120,.T.);
#355=EDGE_CURVE('',#298,#291,#121,.T.);
#356=EDGE_CURVE('',#288,#299,#122,.T.);
#357=LINE('',#553,#391);
#358=LINE('',#556,#392);
#359=LINE('',#558,#393);
#360=LINE('',#560,#394);
#361=LINE('',#562,#395);
#362=LINE('',#565,#396);
#363=LINE('',#567,#397);
#364=LINE('',#569,#398);
#365=LINE('',#577,#399);
#366=LINE('',#580,#400);
#367=LINE('',#582,#401);
#368=LINE('',#584,#402);
#369=LINE('',#586,#403);
#370=LINE('',#591,#404);
#371=LINE('',#594,#405);
#372=LINE('',#597,#406);
#373=LINE('',#599,#407);
#374=LINE('',#601,#408);
#375=LINE('',#603,#409);
#376=LINE('',#605,#410);
#377=LINE('',#607,#411);
#378=LINE('',#609,#412);
#379=LINE('',#611,#413);
#380=LINE('',#613,#414);
#381=LINE('',#615,#415);
#382=LINE('',#617,#416);
#383=LINE('',#619,#417);
#384=LINE('',#622,#418);
#385=LINE('',#624,#419);
#386=LINE('',#626,#420);
#387=LINE('',#628,#421);
#388=LINE('',#629,#422);
#389=LINE('',#631,#423);
#390=LINE('',#633,#424);
#391=VECTOR('',#458,1.);
#392=VECTOR('',#459,1.);
#393=VECTOR('',#460,1.);
#394=VECTOR('',#461,1.);
#395=VECTOR('',#464,1.);
#396=VECTOR('',#465,1.);
#397=VECTOR('',#466,1.);
#398=VECTOR('',#467,1.);
#399=VECTOR('',#482,1.);
#400=VECTOR('',#483,1.);
#401=VECTOR('',#484,1.);
#402=VECTOR('',#485,1.);
#403=VECTOR('',#488,1.);
#404=VECTOR('',#491,1.);
#405=VECTOR('',#494,1.);
#406=VECTOR('',#495,1.);
#407=VECTOR('',#496,1.);
#408=VECTOR('',#497,1.);
#409=VECTOR('',#500,1.);
#410=VECTOR('',#501,1.);
#411=VECTOR('',#502,1.);
#412=VECTOR('',#505,1.);
#413=VECTOR('',#506,1.);
#414=VECTOR('',#509,1.);
#415=VECTOR('',#510,1.);
#416=VECTOR('',#513,1.);
#417=VECTOR('',#516,1.);
#418=VECTOR('',#517,1.);
#419=VECTOR('',#518,1.);
#420=VECTOR('',#519,1.);
#421=VECTOR('',#522,1.);
#422=VECTOR('',#523,1.);
#423=VECTOR('',#526,1.);
#424=VECTOR('',#529,1.);
#425=AXIS2_PLACEMENT_3D('',#552,#456,#457);
#426=AXIS2_PLACEMENT_3D('',#561,#462,#463);
#427=AXIS2_PLACEMENT_3D('',#570,#468,#469);
#428=AXIS2_PLACEMENT_3D('',#571,#470,#471);
#429=AXIS2_PLACEMENT_3D('',#572,#472,#473);
#430=AXIS2_PLACEMENT_3D('',#573,#474,#475);
#431=AXIS2_PLACEMENT_3D('',#574,#476,#477);
#432=AXIS2_PLACEMENT_3D('',#575,#478,#479);
#433=AXIS2_PLACEMENT_3D('',#576,#480,#481);
#434=AXIS2_PLACEMENT_3D('',#585,#486,#487);
#435=AXIS2_PLACEMENT_3D('',#589,#489,#490);
#436=AXIS2_PLACEMENT_3D('',#593,#492,#493);
#437=AXIS2_PLACEMENT_3D('',#602,#498,#499);
#438=AXIS2_PLACEMENT_3D('',#608,#503,#504);
#439=AXIS2_PLACEMENT_3D('',#612,#507,#508);
#440=AXIS2_PLACEMENT_3D('',#616,#511,#512);
#441=AXIS2_PLACEMENT_3D('',#618,#514,#515);
#442=AXIS2_PLACEMENT_3D('',#627,#520,#521);
#443=AXIS2_PLACEMENT_3D('',#630,#524,#525);
#444=AXIS2_PLACEMENT_3D('',#632,#527,#528);
#445=AXIS2_PLACEMENT_3D('',#634,#530,#531);
#446=AXIS2_PLACEMENT_3D('',#635,#532,#533);
#447=AXIS2_PLACEMENT_3D('',#636,#534,#535);
#448=AXIS2_PLACEMENT_3D('',#637,#536,#537);
#449=AXIS2_PLACEMENT_3D('',#638,#538,#539);
#450=AXIS2_PLACEMENT_3D('',#639,#540,#541);
#451=AXIS2_PLACEMENT_3D('',#640,#542,#543);
#452=AXIS2_PLACEMENT_3D('',#641,#544,#545);
#453=AXIS2_PLACEMENT_3D('',#642,#546,#547);
#454=AXIS2_PLACEMENT_3D('',#643,#548,#549);
#455=AXIS2_PLACEMENT_3D('',#644,#550,#551);
#456=DIRECTION('',(0.,0.,1.));
#457=DIRECTION('',(1.,0.,0.));
#458=DIRECTION('',(0.,1.,-1.69241314729445E-16));
#459=DIRECTION('',(0.999961923064171,1.10095461767085E-17,-0.00872653549837393));
#460=DIRECTION('',(-2.25327147078563E-35,1.,-1.69241314729445E-16));
#461=DIRECTION('',(0.999961923064171,-1.47689034077797E-18,-0.00872653549837393));
#462=DIRECTION('',(0.00872653549837393,1.69234870538764E-16,0.999961923064171));
#463=DIRECTION('',(0.999961923064171,0.,-0.00872653549837393));
#464=DIRECTION('',(0.,-1.,-1.48086150388264E-16));
#465=DIRECTION('',(0.999961923064171,-5.50477308835427E-18,0.00872653549837393));
#466=DIRECTION('',(0.,-1.,-1.48086150388264E-16));
#467=DIRECTION('',(0.999961923064171,-1.29227904818073E-18,0.00872653549837393));
#468=DIRECTION('',(0.00872653549837393,1.48080511721419E-16,-0.999961923064171));
#469=DIRECTION('',(-0.999961923064171,0.,-0.00872653549837393));
#470=DIRECTION('',(-1.,0.,0.));
#471=DIRECTION('',(0.,0.,1.));
#472=DIRECTION('',(-1.,0.,0.));
#473=DIRECTION('',(0.,0.,1.));
#474=DIRECTION('',(-1.,0.,0.));
#475=DIRECTION('',(1.74897526458389E-15,0.,1.));
#476=DIRECTION('',(-1.,0.,0.));
#477=DIRECTION('',(0.,0.,1.));
#478=DIRECTION('',(-1.,0.,0.));
#479=DIRECTION('',(0.,0.,1.));
#480=DIRECTION('',(-1.,0.,0.));
#481=DIRECTION('',(1.74897526458389E-15,0.,1.));
#482=DIRECTION('',(0.,0.,-1.));
#483=DIRECTION('',(0.,1.,0.));
#484=DIRECTION('',(0.,0.,1.));
#485=DIRECTION('',(0.,-1.,0.));
#486=DIRECTION('',(1.,0.,0.));
#487=DIRECTION('',(0.,0.,-1.));
#488=DIRECTION('',(0.,1.,1.48086150388264E-16));
#489=DIRECTION('',(1.,0.,0.));
#490=DIRECTION('',(0.,0.,-1.));
#491=DIRECTION('',(0.,-1.,1.69241314729445E-16));
#492=DIRECTION('',(1.,0.,0.));
#493=DIRECTION('',(0.,0.,-1.));
#494=DIRECTION('',(0.,0.,-1.));
#495=DIRECTION('',(0.,-1.,-2.71050543121376E-17));
#496=DIRECTION('',(0.,0.,1.));
#497=DIRECTION('',(0.,1.,0.));
#498=DIRECTION('',(1.,0.,0.));
#499=DIRECTION('',(0.,0.,-1.));
#500=DIRECTION('',(-0.998782765958718,-0.0348782627423746,-0.0348782627423746));
#501=DIRECTION('',(0.,0.,1.));
#502=DIRECTION('',(-0.998782765958718,-0.0348782627423746,0.0348782627423746));
#503=DIRECTION('',(0.0348994967025009,-0.999390827019096,0.));
#504=DIRECTION('',(0.999390827019096,0.0348994967025009,0.));
#505=DIRECTION('',(-0.998782765958718,0.0348782627423746,-0.0348782627423746));
#506=DIRECTION('',(0.,-1.,0.));
#507=DIRECTION('',(0.0348994967025009,0.,-0.999390827019096));
#508=DIRECTION('',(-0.999390827019096,0.,-0.0348994967025009));
#509=DIRECTION('',(-0.998782765958718,0.0348782627423746,0.0348782627423746));
#510=DIRECTION('',(0.,0.,-1.));
#511=DIRECTION('',(0.0348994967025009,0.999390827019096,0.));
#512=DIRECTION('',(-0.999390827019096,0.0348994967025009,0.));
#513=DIRECTION('',(0.,1.,2.71050543121376E-17));
#514=DIRECTION('',(0.0348994967025009,-2.70885426454047E-17,0.999390827019096));
#515=DIRECTION('',(0.999390827019096,0.,-0.0348994967025009));
#516=DIRECTION('',(0.,-1.,0.));
#517=DIRECTION('',(0.,0.,1.));
#518=DIRECTION('',(0.,1.,0.));
#519=DIRECTION('',(0.,0.,-1.));
#520=DIRECTION('',(1.,0.,0.));
#521=DIRECTION('',(0.,1.,0.));
#522=DIRECTION('',(1.,0.,0.));
#523=DIRECTION('',(1.,0.,0.));
#524=DIRECTION('',(0.,1.,0.));
#525=DIRECTION('',(0.,0.,1.));
#526=DIRECTION('',(1.,0.,0.));
#527=DIRECTION('',(0.,0.,1.));
#528=DIRECTION('',(1.,0.,0.));
#529=DIRECTION('',(1.,0.,0.));
#530=DIRECTION('',(0.,-1.,0.));
#531=DIRECTION('',(0.,0.,-1.));
#532=DIRECTION('',(0.,0.,-1.));
#533=DIRECTION('',(-1.,0.,0.));
#534=DIRECTION('',(0.,1.,0.));
#535=DIRECTION('',(0.,0.,0.999999999999998));
#536=DIRECTION('',(0.,1.,0.));
#537=DIRECTION('',(0.,0.,0.999999999999998));
#538=DIRECTION('',(1.,0.,0.));
#539=DIRECTION('',(0.,0.,-1.));
#540=DIRECTION('',(0.,1.,0.));
#541=DIRECTION('',(0.,0.,0.999999999999998));
#542=DIRECTION('',(0.,1.,1.48086150388264E-16));
#543=DIRECTION('',(0.,0.,0.999999999999998));
#544=DIRECTION('',(0.,1.,0.));
#545=DIRECTION('',(0.,0.,0.999999999999998));
#546=DIRECTION('',(0.,-1.,1.69241314729445E-16));
#547=DIRECTION('',(0.,0.,-0.999999999999998));
#548=DIRECTION('',(1.,0.,0.));
#549=DIRECTION('',(0.,0.,-1.));
#550=DIRECTION('',(-1.,0.,0.));
#551=DIRECTION('',(0.,0.,1.));
#552=CARTESIAN_POINT('',(0.,0.,0.));
#553=CARTESIAN_POINT('',(0.799999999999997,10.6769841540039,5.49127313220924));
#554=CARTESIAN_POINT('',(0.799999999999997,-9.82301584599607,5.49127313220922));
#555=CARTESIAN_POINT('',(0.799999999999997,31.1769841540039,5.49127313220923));
#556=CARTESIAN_POINT('',(-0.200000000000003,-9.82301584599607,5.49999999999998));
#557=CARTESIAN_POINT('',(-0.00174530709967776,-9.82301584599607,5.49826985750614));
#558=CARTESIAN_POINT('',(-0.00174530709967763,31.1769841540039,5.49826985750615));
#559=CARTESIAN_POINT('',(-0.0017453070996776,31.1769841540039,5.49826985750615));
#560=CARTESIAN_POINT('',(-0.200000000000003,31.1769841540039,5.49999999999999));
#561=CARTESIAN_POINT('',(-0.200000000000003,10.6769841540039,5.5));
#562=CARTESIAN_POINT('',(0.799999999999997,10.6769841540039,-5.49127313220925));
#563=CARTESIAN_POINT('',(0.799999999999997,31.1769841540039,-5.49127313220925));
#564=CARTESIAN_POINT('',(0.799999999999997,-9.82301584599607,-5.49127313220926));
#565=CARTESIAN_POINT('',(-0.200000000000003,31.1769841540039,-5.50000000000001));
#566=CARTESIAN_POINT('',(-0.00174530709967766,31.1769841540039,-5.49826985750617));
#567=CARTESIAN_POINT('',(-0.00174530709967763,-9.82301584599607,-5.49826985750618));
#568=CARTESIAN_POINT('',(-0.0017453070996776,-9.82301584599607,-5.49826985750618));
#569=CARTESIAN_POINT('',(-0.200000000000003,-9.82301584599607,-5.50000000000002));
#570=CARTESIAN_POINT('',(-0.200000000000003,10.6769841540039,-5.50000000000001));
#571=CARTESIAN_POINT('',(0.799999999999997,-9.82301584599606,-1.66007008647049E-14));
#572=CARTESIAN_POINT('',(-0.00174530709967763,-9.82301584599606,-1.66007008647049E-14));
#573=CARTESIAN_POINT('',(-0.200000000000003,-9.82301584599606,-1.66007008647049E-14));
#574=CARTESIAN_POINT('',(0.799999999999997,31.1769841540039,-9.6618069607977E-15));
#575=CARTESIAN_POINT('',(-0.00174530709967763,31.1769841540039,-9.6618069607977E-15));
#576=CARTESIAN_POINT('',(-0.200000000000003,31.1769841540039,-9.6618069607977E-15));
#577=CARTESIAN_POINT('',(17.5,-20.0160316919921,8.65));
#578=CARTESIAN_POINT('',(17.5,-20.0160316919921,8.65));
#579=CARTESIAN_POINT('',(17.5,-20.0160316919921,-8.65));
#580=CARTESIAN_POINT('',(17.5,-20.0160316919921,-8.65));
#581=CARTESIAN_POINT('',(17.5,41.37,-8.65));
#582=CARTESIAN_POINT('',(17.5,41.37,-8.65));
#583=CARTESIAN_POINT('',(17.5,41.37,8.65));
#584=CARTESIAN_POINT('',(17.5,41.37,8.65));
#585=CARTESIAN_POINT('',(17.5,10.6769841540039,7.46533895063144E-16));
#586=CARTESIAN_POINT('',(-0.200000000000003,31.1769841540039,-5.69826224211901));
#587=CARTESIAN_POINT('',(-0.200000000000003,-9.82301584599607,-5.69826224211901));
#588=CARTESIAN_POINT('',(-0.200000000000003,31.1769841540039,-5.69826224211901));
#589=CARTESIAN_POINT('',(-0.200000000000003,31.1769841540039,-9.6618069607977E-15));
#590=CARTESIAN_POINT('',(-0.200000000000003,31.1769841540039,5.69826224211899));
#591=CARTESIAN_POINT('',(-0.200000000000003,-9.82301584599607,5.69826224211899));
#592=CARTESIAN_POINT('',(-0.200000000000003,-9.82301584599607,5.69826224211899));
#593=CARTESIAN_POINT('',(-0.200000000000003,-9.82301584599606,-1.66007008647049E-14));
#594=CARTESIAN_POINT('',(-0.200000000000003,-21.3230158459961,9.956984154));
#595=CARTESIAN_POINT('',(-0.200000000000003,-21.3230158459961,9.956984154));
#596=CARTESIAN_POINT('',(-0.200000000000003,-21.3230158459961,-9.95698415400001));
#597=CARTESIAN_POINT('',(-0.200000000000003,42.6769841540039,9.956984154));
#598=CARTESIAN_POINT('',(-0.200000000000003,42.6769841540039,9.956984154));
#599=CARTESIAN_POINT('',(-0.200000000000003,42.6769841540039,-9.95698415400001));
#600=CARTESIAN_POINT('',(-0.200000000000003,42.6769841540039,-9.95698415400001));
#601=CARTESIAN_POINT('',(-0.200000000000003,-21.3230158459961,-9.95698415400001));
#602=CARTESIAN_POINT('',(-0.200000000000003,10.6769841540039,7.46533895063144E-16));
#603=CARTESIAN_POINT('',(-0.200000000000003,-21.3230158459961,-9.95698415400001));
#604=CARTESIAN_POINT('',(16.3,-20.7468231493822,-9.38079145738617));
#605=CARTESIAN_POINT('',(16.3,-20.7468231493822,9.956984154));
#606=CARTESIAN_POINT('',(16.3,-20.7468231493822,9.38079145738616));
#607=CARTESIAN_POINT('',(-0.200000000000003,-21.3230158459961,9.95698415399999));
#608=CARTESIAN_POINT('',(-0.200000000000003,-21.3230158459961,9.956984154));
#609=CARTESIAN_POINT('',(-0.200000000000003,42.6769841540039,-9.95698415400001));
#610=CARTESIAN_POINT('',(16.3,42.1007914573901,-9.38079145738617));
#611=CARTESIAN_POINT('',(16.3,-21.3230158459961,-9.38079145738617));
#612=CARTESIAN_POINT('',(-0.200000000000003,-21.3230158459961,-9.95698415400001));
#613=CARTESIAN_POINT('',(-0.200000000000003,42.6769841540039,9.956984154));
#614=CARTESIAN_POINT('',(16.3,42.1007914573901,9.38079145738616));
#615=CARTESIAN_POINT('',(16.3,42.1007914573901,-9.95698415400001));
#616=CARTESIAN_POINT('',(-0.200000000000003,42.6769841540039,-9.95698415400001));
#617=CARTESIAN_POINT('',(16.3,42.6769841540039,9.38079145738616));
#618=CARTESIAN_POINT('',(-0.200000000000003,42.6769841540039,9.956984154));
#619=CARTESIAN_POINT('',(16.3,-20.0160316919921,-8.65));
#620=CARTESIAN_POINT('',(16.3,41.37,-8.65));
#621=CARTESIAN_POINT('',(16.3,-20.0160316919921,-8.65));
#622=CARTESIAN_POINT('',(16.3,-20.0160316919921,8.65));
#623=CARTESIAN_POINT('',(16.3,-20.0160316919921,8.65));
#624=CARTESIAN_POINT('',(16.3,41.37,8.65));
#625=CARTESIAN_POINT('',(16.3,41.37,8.65));
#626=CARTESIAN_POINT('',(16.3,41.37,-8.65));
#627=CARTESIAN_POINT('',(16.3,-20.0160316919921,-8.65));
#628=CARTESIAN_POINT('',(17.5,-20.0160316919921,-8.65));
#629=CARTESIAN_POINT('',(17.5,-20.0160316919921,8.65));
#630=CARTESIAN_POINT('',(17.5,-20.0160316919921,8.65));
#631=CARTESIAN_POINT('',(17.5,41.37,-8.65));
#632=CARTESIAN_POINT('',(17.5,-20.0160316919921,-8.65));
#633=CARTESIAN_POINT('',(17.5,41.37,8.65));
#634=CARTESIAN_POINT('',(17.5,41.37,-8.65));
#635=CARTESIAN_POINT('',(17.5,41.37,8.65));
#636=CARTESIAN_POINT('',(-2.84603070277445E-15,-9.82301584599607,5.69826224211898));
#637=CARTESIAN_POINT('',(-2.84603070277445E-15,-9.82301584599607,-5.69826224211901));
#638=CARTESIAN_POINT('',(-2.84603070277445E-15,-9.82301584599606,-1.66007008647049E-14));
#639=CARTESIAN_POINT('',(-2.84603070277445E-15,31.1769841540039,-5.69826224211901));
#640=CARTESIAN_POINT('',(-2.84603070277445E-15,10.6769841540039,-5.69826224211901));
#641=CARTESIAN_POINT('',(-2.84603070277445E-15,31.1769841540039,5.69826224211899));
#642=CARTESIAN_POINT('',(-2.84603070277445E-15,10.6769841540039,5.69826224211899));
#643=CARTESIAN_POINT('',(-2.84603070277445E-15,31.1769841540039,-9.6618069607977E-15));
#644=CARTESIAN_POINT('',(0.799999999999997,-12.8230158459961,4.));
#645=(
GEOMETRIC_REPRESENTATION_CONTEXT(3)
GLOBAL_UNCERTAINTY_ASSIGNED_CONTEXT((#646))
GLOBAL_UNIT_ASSIGNED_CONTEXT((#652,#648,#647))
REPRESENTATION_CONTEXT('KDS-DE-FB2-A','TOP_LEVEL_ASSEMBLY_PART')
);
#646=UNCERTAINTY_MEASURE_WITH_UNIT(LENGTH_MEASURE(2.E-5),#652,
'DISTANCE_ACCURACY_VALUE','Maximum Tolerance applied to model');
#647=(
NAMED_UNIT(*)
SI_UNIT($,.STERADIAN.)
SOLID_ANGLE_UNIT()
);
#648=(
CONVERSION_BASED_UNIT('DEGREE',#650)
NAMED_UNIT(#649)
PLANE_ANGLE_UNIT()
);
#649=DIMENSIONAL_EXPONENTS(0.,0.,0.,0.,0.,0.,0.);
#650=PLANE_ANGLE_MEASURE_WITH_UNIT(PLANE_ANGLE_MEASURE(0.0174532925),#651);
#651=(
NAMED_UNIT(*)
PLANE_ANGLE_UNIT()
SI_UNIT($,.RADIAN.)
);
#652=(
LENGTH_UNIT()
NAMED_UNIT(*)
SI_UNIT(.MILLI.,.METRE.)
);
ENDSEC;
END-ISO-10303-21;
