ISO-10303-21;
HEADER;
/* Generated by software containing ST-Developer
 * from STEP Tools, Inc. (www.steptools.com) 
 */
/* OPTION: using custom schema-name function */

FILE_DESCRIPTION(
/* description */ (''),
/* implementation_level */ '2;1');

FILE_NAME(
/* name */ '2002_2_TW25-10_info.stp',
/* time_stamp */ '2012-09-12T10:57:25+02:00',
/* author */ (''),
/* organization */ (''),
/* preprocessor_version */ 'ST-DEVELOPER v14',
/* originating_system */ 'SIEMENS PLM Software NX 8.0',
/* authorisation */ '');

FILE_SCHEMA (('CONFIG_CONTROL_DESIGN'));
ENDSEC;

DATA;
#10=GEOMETRICALLY_BOUNDED_WIREFRAME_SHAPE_REPRESENTATION(
'tw_ex_2.5_info-None',(#95),#750);
#11=SHAPE_REPRESENTATION_RELATIONSHIP('None',
'relationship between tw_ex_2.5_info-None and tw_ex_2.5_info-None',#94,#13);
#12=SHAPE_REPRESENTATION_RELATIONSHIP('None',
'relationship between tw_ex_2.5_info-None and tw_ex_2.5_info-None',#94,#10);
#13=ADVANCED_BREP_SHAPE_REPRESENTATION('tw_ex_2.5_info-None',(#96),#750);
#14=CC_DESIGN_APPROVAL(#26,(#84));
#15=CC_DESIGN_APPROVAL(#27,(#86));
#16=CC_DESIGN_APPROVAL(#28,(#33));
#17=APPROVAL_PERSON_ORGANIZATION(#71,#26,#20);
#18=APPROVAL_PERSON_ORGANIZATION(#72,#27,#21);
#19=APPROVAL_PERSON_ORGANIZATION(#73,#28,#22);
#20=APPROVAL_ROLE('approver');
#21=APPROVAL_ROLE('approver');
#22=APPROVAL_ROLE('approver');
#23=APPROVAL_DATE_TIME(#41,#26);
#24=APPROVAL_DATE_TIME(#42,#27);
#25=APPROVAL_DATE_TIME(#43,#28);
#26=APPROVAL(#29,' ');
#27=APPROVAL(#30,' ');
#28=APPROVAL(#31,' ');
#29=APPROVAL_STATUS('not_yet_approved');
#30=APPROVAL_STATUS('not_yet_approved');
#31=APPROVAL_STATUS('not_yet_approved');
#32=CC_DESIGN_SECURITY_CLASSIFICATION(#33,(#86));
#33=SECURITY_CLASSIFICATION(' ',' ',#34);
#34=SECURITY_CLASSIFICATION_LEVEL('confidential');
#35=CC_DESIGN_DATE_AND_TIME_ASSIGNMENT(#39,#37,(#84));
#36=CC_DESIGN_DATE_AND_TIME_ASSIGNMENT(#40,#38,(#33));
#37=DATE_TIME_ROLE('creation_date');
#38=DATE_TIME_ROLE('classification_date');
#39=DATE_AND_TIME(#54,#44);
#40=DATE_AND_TIME(#55,#45);
#41=DATE_AND_TIME(#56,#46);
#42=DATE_AND_TIME(#57,#47);
#43=DATE_AND_TIME(#58,#48);
#44=LOCAL_TIME(0,0,0.,#49);
#45=LOCAL_TIME(0,0,0.,#50);
#46=LOCAL_TIME(0,0,0.,#51);
#47=LOCAL_TIME(0,0,0.,#52);
#48=LOCAL_TIME(0,0,0.,#53);
#49=COORDINATED_UNIVERSAL_TIME_OFFSET(0,0,.BEHIND.);
#50=COORDINATED_UNIVERSAL_TIME_OFFSET(0,0,.BEHIND.);
#51=COORDINATED_UNIVERSAL_TIME_OFFSET(0,0,.BEHIND.);
#52=COORDINATED_UNIVERSAL_TIME_OFFSET(0,0,.BEHIND.);
#53=COORDINATED_UNIVERSAL_TIME_OFFSET(0,0,.BEHIND.);
#54=CALENDAR_DATE(0,1,1);
#55=CALENDAR_DATE(0,1,1);
#56=CALENDAR_DATE(0,1,1);
#57=CALENDAR_DATE(0,1,1);
#58=CALENDAR_DATE(0,1,1);
#59=CC_DESIGN_PERSON_AND_ORGANIZATION_ASSIGNMENT(#67,#63,(#84,#86));
#60=CC_DESIGN_PERSON_AND_ORGANIZATION_ASSIGNMENT(#68,#64,(#88));
#61=CC_DESIGN_PERSON_AND_ORGANIZATION_ASSIGNMENT(#69,#65,(#86));
#62=CC_DESIGN_PERSON_AND_ORGANIZATION_ASSIGNMENT(#70,#66,(#33));
#63=PERSON_AND_ORGANIZATION_ROLE('creator');
#64=PERSON_AND_ORGANIZATION_ROLE('design_owner');
#65=PERSON_AND_ORGANIZATION_ROLE('design_supplier');
#66=PERSON_AND_ORGANIZATION_ROLE('classification_officer');
#67=PERSON_AND_ORGANIZATION(#81,#74);
#68=PERSON_AND_ORGANIZATION(#81,#75);
#69=PERSON_AND_ORGANIZATION(#81,#76);
#70=PERSON_AND_ORGANIZATION(#81,#77);
#71=PERSON_AND_ORGANIZATION(#81,#78);
#72=PERSON_AND_ORGANIZATION(#81,#79);
#73=PERSON_AND_ORGANIZATION(#81,#80);
#74=ORGANIZATION(' ',' ',' ');
#75=ORGANIZATION(' ',' ',' ');
#76=ORGANIZATION(' ',' ',' ');
#77=ORGANIZATION(' ',' ',' ');
#78=ORGANIZATION(' ',' ',' ');
#79=ORGANIZATION(' ',' ',' ');
#80=ORGANIZATION(' ',' ',' ');
#81=PERSON(' ',' ',' ',(' '),$,$);
#82=SHAPE_DEFINITION_REPRESENTATION(#83,#94);
#83=PRODUCT_DEFINITION_SHAPE('','',#84);
#84=PRODUCT_DEFINITION(' ','',#86,#85);
#85=DESIGN_CONTEXT('',#93,'design');
#86=PRODUCT_DEFINITION_FORMATION_WITH_SPECIFIED_SOURCE(' ',' ',#88,
 .NOT_KNOWN.);
#87=PRODUCT_RELATED_PRODUCT_CATEGORY('detail','',(#88));
#88=PRODUCT('tw_ex_2.5_info','tw_ex_2.5_info',' ',(#91));
#89=PRODUCT_CATEGORY('part',' ');
#90=PRODUCT_CATEGORY(' ','');
#91=MECHANICAL_CONTEXT(' ',#93,'mechanical');
#92=APPLICATION_PROTOCOL_DEFINITION('international standard',
'config_control_design',2010,#93);
#93=APPLICATION_CONTEXT(
'configuration controlled 3D designs of mechanical parts and assemblies');
#94=SHAPE_REPRESENTATION('tw_ex_2.5_info-None',(#466),#750);
#95=GEOMETRIC_CURVE_SET('None',(#370,#371,#372,#373,#374,#375,#376,#377,
#378,#379,#380,#381,#382,#383,#384,#385));
#96=MANIFOLD_SOLID_BREP('',#97);
#97=CLOSED_SHELL('',(#106,#107,#108,#109,#110,#111,#112,#113,#114,#115,#116,
#117,#118,#119,#120,#121,#122,#123));
#98=CYLINDRICAL_SURFACE('',#478,0.5);
#99=CYLINDRICAL_SURFACE('',#482,1.);
#100=CYLINDRICAL_SURFACE('',#486,2.);
#101=CYLINDRICAL_SURFACE('',#490,10.);
#102=CYLINDRICAL_SURFACE('',#494,10.);
#103=CYLINDRICAL_SURFACE('',#498,2.);
#104=CYLINDRICAL_SURFACE('',#502,1.);
#105=CYLINDRICAL_SURFACE('',#506,0.5);
#106=ADVANCED_FACE('',(#134),#124,.F.);
#107=ADVANCED_FACE('',(#135),#98,.F.);
#108=ADVANCED_FACE('',(#136),#125,.F.);
#109=ADVANCED_FACE('',(#137),#99,.T.);
#110=ADVANCED_FACE('',(#138),#126,.F.);
#111=ADVANCED_FACE('',(#139),#100,.T.);
#112=ADVANCED_FACE('',(#140),#127,.F.);
#113=ADVANCED_FACE('',(#141),#101,.T.);
#114=ADVANCED_FACE('',(#142),#128,.F.);
#115=ADVANCED_FACE('',(#143),#102,.T.);
#116=ADVANCED_FACE('',(#144),#129,.F.);
#117=ADVANCED_FACE('',(#145),#103,.T.);
#118=ADVANCED_FACE('',(#146),#130,.F.);
#119=ADVANCED_FACE('',(#147),#104,.T.);
#120=ADVANCED_FACE('',(#148),#131,.F.);
#121=ADVANCED_FACE('',(#149),#105,.F.);
#122=ADVANCED_FACE('',(#150),#132,.F.);
#123=ADVANCED_FACE('',(#151),#133,.T.);
#124=PLANE('',#475);
#125=PLANE('',#479);
#126=PLANE('',#483);
#127=PLANE('',#487);
#128=PLANE('',#491);
#129=PLANE('',#495);
#130=PLANE('',#499);
#131=PLANE('',#503);
#132=PLANE('',#507);
#133=PLANE('',#508);
#134=FACE_OUTER_BOUND('',#152,.T.);
#135=FACE_OUTER_BOUND('',#153,.T.);
#136=FACE_OUTER_BOUND('',#154,.T.);
#137=FACE_OUTER_BOUND('',#155,.T.);
#138=FACE_OUTER_BOUND('',#156,.T.);
#139=FACE_OUTER_BOUND('',#157,.T.);
#140=FACE_OUTER_BOUND('',#158,.T.);
#141=FACE_OUTER_BOUND('',#159,.T.);
#142=FACE_OUTER_BOUND('',#160,.T.);
#143=FACE_OUTER_BOUND('',#161,.T.);
#144=FACE_OUTER_BOUND('',#162,.T.);
#145=FACE_OUTER_BOUND('',#163,.T.);
#146=FACE_OUTER_BOUND('',#164,.T.);
#147=FACE_OUTER_BOUND('',#165,.T.);
#148=FACE_OUTER_BOUND('',#166,.T.);
#149=FACE_OUTER_BOUND('',#167,.T.);
#150=FACE_OUTER_BOUND('',#168,.T.);
#151=FACE_OUTER_BOUND('',#169,.T.);
#152=EDGE_LOOP('',(#170,#171,#172,#173));
#153=EDGE_LOOP('',(#174,#175,#176,#177));
#154=EDGE_LOOP('',(#178,#179,#180,#181));
#155=EDGE_LOOP('',(#182,#183,#184,#185));
#156=EDGE_LOOP('',(#186,#187,#188,#189));
#157=EDGE_LOOP('',(#190,#191,#192,#193));
#158=EDGE_LOOP('',(#194,#195,#196,#197));
#159=EDGE_LOOP('',(#198,#199,#200,#201));
#160=EDGE_LOOP('',(#202,#203,#204,#205));
#161=EDGE_LOOP('',(#206,#207,#208,#209));
#162=EDGE_LOOP('',(#210,#211,#212,#213));
#163=EDGE_LOOP('',(#214,#215,#216,#217));
#164=EDGE_LOOP('',(#218,#219,#220,#221));
#165=EDGE_LOOP('',(#222,#223,#224,#225));
#166=EDGE_LOOP('',(#226,#227,#228,#229));
#167=EDGE_LOOP('',(#230,#231,#232,#233));
#168=EDGE_LOOP('',(#234,#235,#236,#237,#238,#239,#240,#241,#242,#243,#244,
#245,#246,#247,#248,#249));
#169=EDGE_LOOP('',(#250,#251,#252,#253,#254,#255,#256,#257,#258,#259,#260,
#261,#262,#263,#264,#265));
#170=ORIENTED_EDGE('',*,*,#298,.T.);
#171=ORIENTED_EDGE('',*,*,#299,.F.);
#172=ORIENTED_EDGE('',*,*,#300,.F.);
#173=ORIENTED_EDGE('',*,*,#301,.T.);
#174=ORIENTED_EDGE('',*,*,#302,.T.);
#175=ORIENTED_EDGE('',*,*,#303,.F.);
#176=ORIENTED_EDGE('',*,*,#304,.F.);
#177=ORIENTED_EDGE('',*,*,#299,.T.);
#178=ORIENTED_EDGE('',*,*,#305,.T.);
#179=ORIENTED_EDGE('',*,*,#306,.F.);
#180=ORIENTED_EDGE('',*,*,#307,.F.);
#181=ORIENTED_EDGE('',*,*,#303,.T.);
#182=ORIENTED_EDGE('',*,*,#308,.T.);
#183=ORIENTED_EDGE('',*,*,#309,.F.);
#184=ORIENTED_EDGE('',*,*,#310,.F.);
#185=ORIENTED_EDGE('',*,*,#306,.T.);
#186=ORIENTED_EDGE('',*,*,#311,.T.);
#187=ORIENTED_EDGE('',*,*,#312,.F.);
#188=ORIENTED_EDGE('',*,*,#313,.F.);
#189=ORIENTED_EDGE('',*,*,#309,.T.);
#190=ORIENTED_EDGE('',*,*,#314,.T.);
#191=ORIENTED_EDGE('',*,*,#315,.F.);
#192=ORIENTED_EDGE('',*,*,#316,.F.);
#193=ORIENTED_EDGE('',*,*,#312,.T.);
#194=ORIENTED_EDGE('',*,*,#317,.T.);
#195=ORIENTED_EDGE('',*,*,#318,.F.);
#196=ORIENTED_EDGE('',*,*,#319,.F.);
#197=ORIENTED_EDGE('',*,*,#315,.T.);
#198=ORIENTED_EDGE('',*,*,#320,.T.);
#199=ORIENTED_EDGE('',*,*,#321,.F.);
#200=ORIENTED_EDGE('',*,*,#322,.F.);
#201=ORIENTED_EDGE('',*,*,#318,.T.);
#202=ORIENTED_EDGE('',*,*,#323,.T.);
#203=ORIENTED_EDGE('',*,*,#324,.F.);
#204=ORIENTED_EDGE('',*,*,#325,.F.);
#205=ORIENTED_EDGE('',*,*,#321,.T.);
#206=ORIENTED_EDGE('',*,*,#326,.T.);
#207=ORIENTED_EDGE('',*,*,#327,.F.);
#208=ORIENTED_EDGE('',*,*,#328,.F.);
#209=ORIENTED_EDGE('',*,*,#324,.T.);
#210=ORIENTED_EDGE('',*,*,#329,.T.);
#211=ORIENTED_EDGE('',*,*,#330,.F.);
#212=ORIENTED_EDGE('',*,*,#331,.F.);
#213=ORIENTED_EDGE('',*,*,#327,.T.);
#214=ORIENTED_EDGE('',*,*,#332,.T.);
#215=ORIENTED_EDGE('',*,*,#333,.F.);
#216=ORIENTED_EDGE('',*,*,#334,.F.);
#217=ORIENTED_EDGE('',*,*,#330,.T.);
#218=ORIENTED_EDGE('',*,*,#335,.T.);
#219=ORIENTED_EDGE('',*,*,#336,.F.);
#220=ORIENTED_EDGE('',*,*,#337,.F.);
#221=ORIENTED_EDGE('',*,*,#333,.T.);
#222=ORIENTED_EDGE('',*,*,#338,.T.);
#223=ORIENTED_EDGE('',*,*,#339,.F.);
#224=ORIENTED_EDGE('',*,*,#340,.F.);
#225=ORIENTED_EDGE('',*,*,#336,.T.);
#226=ORIENTED_EDGE('',*,*,#341,.T.);
#227=ORIENTED_EDGE('',*,*,#342,.F.);
#228=ORIENTED_EDGE('',*,*,#343,.F.);
#229=ORIENTED_EDGE('',*,*,#339,.T.);
#230=ORIENTED_EDGE('',*,*,#344,.T.);
#231=ORIENTED_EDGE('',*,*,#301,.F.);
#232=ORIENTED_EDGE('',*,*,#345,.F.);
#233=ORIENTED_EDGE('',*,*,#342,.T.);
#234=ORIENTED_EDGE('',*,*,#300,.T.);
#235=ORIENTED_EDGE('',*,*,#304,.T.);
#236=ORIENTED_EDGE('',*,*,#307,.T.);
#237=ORIENTED_EDGE('',*,*,#310,.T.);
#238=ORIENTED_EDGE('',*,*,#313,.T.);
#239=ORIENTED_EDGE('',*,*,#316,.T.);
#240=ORIENTED_EDGE('',*,*,#319,.T.);
#241=ORIENTED_EDGE('',*,*,#322,.T.);
#242=ORIENTED_EDGE('',*,*,#325,.T.);
#243=ORIENTED_EDGE('',*,*,#328,.T.);
#244=ORIENTED_EDGE('',*,*,#331,.T.);
#245=ORIENTED_EDGE('',*,*,#334,.T.);
#246=ORIENTED_EDGE('',*,*,#337,.T.);
#247=ORIENTED_EDGE('',*,*,#340,.T.);
#248=ORIENTED_EDGE('',*,*,#343,.T.);
#249=ORIENTED_EDGE('',*,*,#345,.T.);
#250=ORIENTED_EDGE('',*,*,#298,.F.);
#251=ORIENTED_EDGE('',*,*,#344,.F.);
#252=ORIENTED_EDGE('',*,*,#341,.F.);
#253=ORIENTED_EDGE('',*,*,#338,.F.);
#254=ORIENTED_EDGE('',*,*,#335,.F.);
#255=ORIENTED_EDGE('',*,*,#332,.F.);
#256=ORIENTED_EDGE('',*,*,#329,.F.);
#257=ORIENTED_EDGE('',*,*,#326,.F.);
#258=ORIENTED_EDGE('',*,*,#323,.F.);
#259=ORIENTED_EDGE('',*,*,#320,.F.);
#260=ORIENTED_EDGE('',*,*,#317,.F.);
#261=ORIENTED_EDGE('',*,*,#314,.F.);
#262=ORIENTED_EDGE('',*,*,#311,.F.);
#263=ORIENTED_EDGE('',*,*,#308,.F.);
#264=ORIENTED_EDGE('',*,*,#305,.F.);
#265=ORIENTED_EDGE('',*,*,#302,.F.);
#266=VERTEX_POINT('',#653);
#267=VERTEX_POINT('',#654);
#268=VERTEX_POINT('',#656);
#269=VERTEX_POINT('',#658);
#270=VERTEX_POINT('',#662);
#271=VERTEX_POINT('',#664);
#272=VERTEX_POINT('',#668);
#273=VERTEX_POINT('',#670);
#274=VERTEX_POINT('',#674);
#275=VERTEX_POINT('',#676);
#276=VERTEX_POINT('',#680);
#277=VERTEX_POINT('',#682);
#278=VERTEX_POINT('',#686);
#279=VERTEX_POINT('',#688);
#280=VERTEX_POINT('',#692);
#281=VERTEX_POINT('',#694);
#282=VERTEX_POINT('',#698);
#283=VERTEX_POINT('',#700);
#284=VERTEX_POINT('',#704);
#285=VERTEX_POINT('',#706);
#286=VERTEX_POINT('',#710);
#287=VERTEX_POINT('',#712);
#288=VERTEX_POINT('',#716);
#289=VERTEX_POINT('',#718);
#290=VERTEX_POINT('',#722);
#291=VERTEX_POINT('',#724);
#292=VERTEX_POINT('',#728);
#293=VERTEX_POINT('',#730);
#294=VERTEX_POINT('',#734);
#295=VERTEX_POINT('',#736);
#296=VERTEX_POINT('',#740);
#297=VERTEX_POINT('',#742);
#298=EDGE_CURVE('',#266,#267,#394,.T.);
#299=EDGE_CURVE('',#268,#267,#395,.T.);
#300=EDGE_CURVE('',#269,#268,#396,.T.);
#301=EDGE_CURVE('',#269,#266,#397,.T.);
#302=EDGE_CURVE('',#267,#270,#354,.T.);
#303=EDGE_CURVE('',#271,#270,#398,.T.);
#304=EDGE_CURVE('',#268,#271,#355,.T.);
#305=EDGE_CURVE('',#270,#272,#399,.T.);
#306=EDGE_CURVE('',#273,#272,#400,.T.);
#307=EDGE_CURVE('',#271,#273,#401,.T.);
#308=EDGE_CURVE('',#272,#274,#356,.T.);
#309=EDGE_CURVE('',#275,#274,#402,.T.);
#310=EDGE_CURVE('',#273,#275,#357,.T.);
#311=EDGE_CURVE('',#274,#276,#403,.T.);
#312=EDGE_CURVE('',#277,#276,#404,.T.);
#313=EDGE_CURVE('',#275,#277,#405,.T.);
#314=EDGE_CURVE('',#276,#278,#358,.T.);
#315=EDGE_CURVE('',#279,#278,#406,.T.);
#316=EDGE_CURVE('',#277,#279,#359,.T.);
#317=EDGE_CURVE('',#278,#280,#407,.T.);
#318=EDGE_CURVE('',#281,#280,#408,.T.);
#319=EDGE_CURVE('',#279,#281,#409,.T.);
#320=EDGE_CURVE('',#280,#282,#360,.T.);
#321=EDGE_CURVE('',#283,#282,#410,.T.);
#322=EDGE_CURVE('',#281,#283,#361,.T.);
#323=EDGE_CURVE('',#282,#284,#411,.T.);
#324=EDGE_CURVE('',#285,#284,#412,.T.);
#325=EDGE_CURVE('',#283,#285,#413,.T.);
#326=EDGE_CURVE('',#284,#286,#362,.T.);
#327=EDGE_CURVE('',#287,#286,#414,.T.);
#328=EDGE_CURVE('',#285,#287,#363,.T.);
#329=EDGE_CURVE('',#286,#288,#415,.T.);
#330=EDGE_CURVE('',#289,#288,#416,.T.);
#331=EDGE_CURVE('',#287,#289,#417,.T.);
#332=EDGE_CURVE('',#288,#290,#364,.T.);
#333=EDGE_CURVE('',#291,#290,#418,.T.);
#334=EDGE_CURVE('',#289,#291,#365,.T.);
#335=EDGE_CURVE('',#290,#292,#419,.T.);
#336=EDGE_CURVE('',#293,#292,#420,.T.);
#337=EDGE_CURVE('',#291,#293,#421,.T.);
#338=EDGE_CURVE('',#292,#294,#366,.T.);
#339=EDGE_CURVE('',#295,#294,#422,.T.);
#340=EDGE_CURVE('',#293,#295,#367,.T.);
#341=EDGE_CURVE('',#294,#296,#423,.T.);
#342=EDGE_CURVE('',#297,#296,#424,.T.);
#343=EDGE_CURVE('',#295,#297,#425,.T.);
#344=EDGE_CURVE('',#296,#266,#368,.T.);
#345=EDGE_CURVE('',#297,#269,#369,.T.);
#346=CIRCLE('',#467,1.);
#347=CIRCLE('',#468,1.);
#348=CIRCLE('',#469,2.);
#349=CIRCLE('',#470,2.);
#350=CIRCLE('',#471,0.5);
#351=CIRCLE('',#472,0.5);
#352=CIRCLE('',#473,10.);
#353=CIRCLE('',#474,10.);
#354=CIRCLE('',#476,0.5);
#355=CIRCLE('',#477,0.5);
#356=CIRCLE('',#480,1.);
#357=CIRCLE('',#481,1.);
#358=CIRCLE('',#484,2.);
#359=CIRCLE('',#485,2.);
#360=CIRCLE('',#488,10.);
#361=CIRCLE('',#489,10.);
#362=CIRCLE('',#492,10.);
#363=CIRCLE('',#493,10.);
#364=CIRCLE('',#496,2.);
#365=CIRCLE('',#497,2.);
#366=CIRCLE('',#500,1.);
#367=CIRCLE('',#501,1.);
#368=CIRCLE('',#504,0.5);
#369=CIRCLE('',#505,0.5);
#370=TRIMMED_CURVE('',#386,(PARAMETER_VALUE(0.)),(PARAMETER_VALUE(1.)),.T.,
 .PARAMETER.);
#371=TRIMMED_CURVE('',#387,(PARAMETER_VALUE(0.)),(PARAMETER_VALUE(1.)),.T.,
 .PARAMETER.);
#372=TRIMMED_CURVE('',#388,(PARAMETER_VALUE(0.)),(PARAMETER_VALUE(1.)),.T.,
 .PARAMETER.);
#373=TRIMMED_CURVE('',#389,(PARAMETER_VALUE(0.)),(PARAMETER_VALUE(1.)),.T.,
 .PARAMETER.);
#374=TRIMMED_CURVE('',#390,(PARAMETER_VALUE(0.)),(PARAMETER_VALUE(1.)),.T.,
 .PARAMETER.);
#375=TRIMMED_CURVE('',#391,(PARAMETER_VALUE(0.)),(PARAMETER_VALUE(1.)),.T.,
 .PARAMETER.);
#376=TRIMMED_CURVE('',#392,(PARAMETER_VALUE(0.)),(PARAMETER_VALUE(1.)),.T.,
 .PARAMETER.);
#377=TRIMMED_CURVE('',#393,(PARAMETER_VALUE(0.)),(PARAMETER_VALUE(1.)),.T.,
 .PARAMETER.);
#378=TRIMMED_CURVE('',#346,(PARAMETER_VALUE(270.)),(PARAMETER_VALUE(360.)),
 .T.,.PARAMETER.);
#379=TRIMMED_CURVE('',#347,(PARAMETER_VALUE(180.)),(PARAMETER_VALUE(270.)),
 .T.,.PARAMETER.);
#380=TRIMMED_CURVE('',#348,(PARAMETER_VALUE(270.)),(PARAMETER_VALUE(360.)),
 .T.,.PARAMETER.);
#381=TRIMMED_CURVE('',#349,(PARAMETER_VALUE(180.)),(PARAMETER_VALUE(270.)),
 .T.,.PARAMETER.);
#382=TRIMMED_CURVE('',#350,(PARAMETER_VALUE(90.)),(PARAMETER_VALUE(180.)),
 .T.,.PARAMETER.);
#383=TRIMMED_CURVE('',#351,(PARAMETER_VALUE(0.)),(PARAMETER_VALUE(90.)),
 .T.,.PARAMETER.);
#384=TRIMMED_CURVE('',#352,(PARAMETER_VALUE(0.)),(PARAMETER_VALUE(90.)),
 .T.,.PARAMETER.);
#385=TRIMMED_CURVE('',#353,(PARAMETER_VALUE(90.)),(PARAMETER_VALUE(180.)),
 .T.,.PARAMETER.);
#386=LINE('',#636,#426);
#387=LINE('',#637,#427);
#388=LINE('',#638,#428);
#389=LINE('',#639,#429);
#390=LINE('',#640,#430);
#391=LINE('',#641,#431);
#392=LINE('',#642,#432);
#393=LINE('',#643,#433);
#394=LINE('',#652,#434);
#395=LINE('',#655,#435);
#396=LINE('',#657,#436);
#397=LINE('',#659,#437);
#398=LINE('',#663,#438);
#399=LINE('',#667,#439);
#400=LINE('',#669,#440);
#401=LINE('',#671,#441);
#402=LINE('',#675,#442);
#403=LINE('',#679,#443);
#404=LINE('',#681,#444);
#405=LINE('',#683,#445);
#406=LINE('',#687,#446);
#407=LINE('',#691,#447);
#408=LINE('',#693,#448);
#409=LINE('',#695,#449);
#410=LINE('',#699,#450);
#411=LINE('',#703,#451);
#412=LINE('',#705,#452);
#413=LINE('',#707,#453);
#414=LINE('',#711,#454);
#415=LINE('',#715,#455);
#416=LINE('',#717,#456);
#417=LINE('',#719,#457);
#418=LINE('',#723,#458);
#419=LINE('',#727,#459);
#420=LINE('',#729,#460);
#421=LINE('',#731,#461);
#422=LINE('',#735,#462);
#423=LINE('',#739,#463);
#424=LINE('',#741,#464);
#425=LINE('',#743,#465);
#426=VECTOR('',#511,30.8);
#427=VECTOR('',#512,32.6);
#428=VECTOR('',#513,32.6);
#429=VECTOR('',#514,3.);
#430=VECTOR('',#515,35.6);
#431=VECTOR('',#516,3.);
#432=VECTOR('',#517,4.1);
#433=VECTOR('',#518,4.1);
#434=VECTOR('',#535,1.);
#435=VECTOR('',#536,1.);
#436=VECTOR('',#537,1.);
#437=VECTOR('',#538,1.);
#438=VECTOR('',#543,1.);
#439=VECTOR('',#548,1.);
#440=VECTOR('',#549,1.);
#441=VECTOR('',#550,1.);
#442=VECTOR('',#555,1.);
#443=VECTOR('',#560,1.);
#444=VECTOR('',#561,1.);
#445=VECTOR('',#562,1.);
#446=VECTOR('',#567,1.);
#447=VECTOR('',#572,1.);
#448=VECTOR('',#573,1.);
#449=VECTOR('',#574,1.);
#450=VECTOR('',#579,1.);
#451=VECTOR('',#584,1.);
#452=VECTOR('',#585,1.);
#453=VECTOR('',#586,1.);
#454=VECTOR('',#591,1.);
#455=VECTOR('',#596,1.);
#456=VECTOR('',#597,1.);
#457=VECTOR('',#598,1.);
#458=VECTOR('',#603,1.);
#459=VECTOR('',#608,1.);
#460=VECTOR('',#609,1.);
#461=VECTOR('',#610,1.);
#462=VECTOR('',#615,1.);
#463=VECTOR('',#620,1.);
#464=VECTOR('',#621,1.);
#465=VECTOR('',#622,1.);
#466=AXIS2_PLACEMENT_3D('',#635,#509,#510);
#467=AXIS2_PLACEMENT_3D('',#644,#519,#520);
#468=AXIS2_PLACEMENT_3D('',#645,#521,#522);
#469=AXIS2_PLACEMENT_3D('',#646,#523,#524);
#470=AXIS2_PLACEMENT_3D('',#647,#525,#526);
#471=AXIS2_PLACEMENT_3D('',#648,#527,#528);
#472=AXIS2_PLACEMENT_3D('',#649,#529,#530);
#473=AXIS2_PLACEMENT_3D('',#650,#531,#532);
#474=AXIS2_PLACEMENT_3D('',#651,#533,#534);
#475=AXIS2_PLACEMENT_3D('',#660,#539,#540);
#476=AXIS2_PLACEMENT_3D('',#661,#541,#542);
#477=AXIS2_PLACEMENT_3D('',#665,#544,#545);
#478=AXIS2_PLACEMENT_3D('',#666,#546,#547);
#479=AXIS2_PLACEMENT_3D('',#672,#551,#552);
#480=AXIS2_PLACEMENT_3D('',#673,#553,#554);
#481=AXIS2_PLACEMENT_3D('',#677,#556,#557);
#482=AXIS2_PLACEMENT_3D('',#678,#558,#559);
#483=AXIS2_PLACEMENT_3D('',#684,#563,#564);
#484=AXIS2_PLACEMENT_3D('',#685,#565,#566);
#485=AXIS2_PLACEMENT_3D('',#689,#568,#569);
#486=AXIS2_PLACEMENT_3D('',#690,#570,#571);
#487=AXIS2_PLACEMENT_3D('',#696,#575,#576);
#488=AXIS2_PLACEMENT_3D('',#697,#577,#578);
#489=AXIS2_PLACEMENT_3D('',#701,#580,#581);
#490=AXIS2_PLACEMENT_3D('',#702,#582,#583);
#491=AXIS2_PLACEMENT_3D('',#708,#587,#588);
#492=AXIS2_PLACEMENT_3D('',#709,#589,#590);
#493=AXIS2_PLACEMENT_3D('',#713,#592,#593);
#494=AXIS2_PLACEMENT_3D('',#714,#594,#595);
#495=AXIS2_PLACEMENT_3D('',#720,#599,#600);
#496=AXIS2_PLACEMENT_3D('',#721,#601,#602);
#497=AXIS2_PLACEMENT_3D('',#725,#604,#605);
#498=AXIS2_PLACEMENT_3D('',#726,#606,#607);
#499=AXIS2_PLACEMENT_3D('',#732,#611,#612);
#500=AXIS2_PLACEMENT_3D('',#733,#613,#614);
#501=AXIS2_PLACEMENT_3D('',#737,#616,#617);
#502=AXIS2_PLACEMENT_3D('',#738,#618,#619);
#503=AXIS2_PLACEMENT_3D('',#744,#623,#624);
#504=AXIS2_PLACEMENT_3D('',#745,#625,#626);
#505=AXIS2_PLACEMENT_3D('',#746,#627,#628);
#506=AXIS2_PLACEMENT_3D('',#747,#629,#630);
#507=AXIS2_PLACEMENT_3D('',#748,#631,#632);
#508=AXIS2_PLACEMENT_3D('',#749,#633,#634);
#509=DIRECTION('',(0.,0.,1.));
#510=DIRECTION('',(1.,0.,0.));
#511=DIRECTION('',(1.,0.,0.));
#512=DIRECTION('',(0.,1.,0.));
#513=DIRECTION('',(0.,1.,0.));
#514=DIRECTION('',(0.,1.,0.));
#515=DIRECTION('',(1.,0.,0.));
#516=DIRECTION('',(0.,1.,0.));
#517=DIRECTION('',(1.,-1.62471662140267E-016,0.));
#518=DIRECTION('',(1.,0.,0.));
#519=DIRECTION('',(0.,0.,1.));
#520=DIRECTION('',(1.,0.,0.));
#521=DIRECTION('',(0.,0.,1.));
#522=DIRECTION('',(1.,0.,0.));
#523=DIRECTION('',(0.,0.,1.));
#524=DIRECTION('',(1.,0.,0.));
#525=DIRECTION('',(0.,0.,1.));
#526=DIRECTION('',(1.,0.,0.));
#527=DIRECTION('',(0.,0.,1.));
#528=DIRECTION('',(1.,0.,0.));
#529=DIRECTION('',(0.,0.,1.));
#530=DIRECTION('',(1.,0.,0.));
#531=DIRECTION('',(0.,0.,1.));
#532=DIRECTION('',(1.,0.,0.));
#533=DIRECTION('',(0.,0.,1.));
#534=DIRECTION('',(1.,0.,0.));
#535=DIRECTION('',(-1.,0.,0.));
#536=DIRECTION('',(0.,0.,1.));
#537=DIRECTION('',(-1.,0.,0.));
#538=DIRECTION('',(0.,0.,1.));
#539=DIRECTION('',(0.,1.,0.));
#540=DIRECTION('',(0.,0.,1.));
#541=DIRECTION('',(0.,0.,1.));
#542=DIRECTION('',(1.,0.,0.));
#543=DIRECTION('',(0.,0.,1.));
#544=DIRECTION('',(0.,0.,1.));
#545=DIRECTION('',(1.,0.,0.));
#546=DIRECTION('',(0.,0.,1.));
#547=DIRECTION('',(1.,0.,0.));
#548=DIRECTION('',(0.,-1.,0.));
#549=DIRECTION('',(0.,0.,1.));
#550=DIRECTION('',(0.,-1.,0.));
#551=DIRECTION('',(-1.,0.,0.));
#552=DIRECTION('',(0.,0.,1.));
#553=DIRECTION('',(0.,0.,-1.));
#554=DIRECTION('',(1.,2.16840434497101E-016,0.));
#555=DIRECTION('',(0.,0.,1.));
#556=DIRECTION('',(0.,0.,-1.));
#557=DIRECTION('',(1.,2.16840434497101E-016,0.));
#558=DIRECTION('',(0.,0.,1.));
#559=DIRECTION('',(1.,0.,0.));
#560=DIRECTION('',(-1.,1.62471662140267E-016,0.));
#561=DIRECTION('',(0.,0.,1.));
#562=DIRECTION('',(-1.,1.62471662140267E-016,0.));
#563=DIRECTION('',(1.62471662140267E-016,1.,0.));
#564=DIRECTION('',(-1.,1.62471662140267E-016,0.));
#565=DIRECTION('',(0.,0.,-1.));
#566=DIRECTION('',(0.999999999999999,2.16840434497101E-016,0.));
#567=DIRECTION('',(0.,0.,1.));
#568=DIRECTION('',(0.,0.,-1.));
#569=DIRECTION('',(0.999999999999999,2.16840434497101E-016,0.));
#570=DIRECTION('',(0.,0.,1.));
#571=DIRECTION('',(0.999999999999999,0.,0.));
#572=DIRECTION('',(0.,1.,0.));
#573=DIRECTION('',(0.,0.,1.));
#574=DIRECTION('',(0.,1.,0.));
#575=DIRECTION('',(1.,0.,0.));
#576=DIRECTION('',(0.,0.,-1.));
#577=DIRECTION('',(0.,0.,-1.));
#578=DIRECTION('',(1.,0.,0.));
#579=DIRECTION('',(0.,0.,1.));
#580=DIRECTION('',(0.,0.,-1.));
#581=DIRECTION('',(1.,0.,0.));
#582=DIRECTION('',(0.,0.,1.));
#583=DIRECTION('',(1.,0.,0.));
#584=DIRECTION('',(1.,0.,0.));
#585=DIRECTION('',(0.,0.,1.));
#586=DIRECTION('',(1.,0.,0.));
#587=DIRECTION('',(0.,-1.,0.));
#588=DIRECTION('',(0.,0.,-1.));
#589=DIRECTION('',(0.,0.,-1.));
#590=DIRECTION('',(1.,0.,0.));
#591=DIRECTION('',(0.,0.,1.));
#592=DIRECTION('',(0.,0.,-1.));
#593=DIRECTION('',(1.,0.,0.));
#594=DIRECTION('',(0.,0.,1.));
#595=DIRECTION('',(1.,0.,0.));
#596=DIRECTION('',(0.,-1.,0.));
#597=DIRECTION('',(0.,0.,1.));
#598=DIRECTION('',(0.,-1.,0.));
#599=DIRECTION('',(-1.,0.,0.));
#600=DIRECTION('',(0.,0.,1.));
#601=DIRECTION('',(0.,0.,-1.));
#602=DIRECTION('',(0.999999999999999,2.16840434497101E-016,0.));
#603=DIRECTION('',(0.,0.,1.));
#604=DIRECTION('',(0.,0.,-1.));
#605=DIRECTION('',(0.999999999999999,2.16840434497101E-016,0.));
#606=DIRECTION('',(0.,0.,1.));
#607=DIRECTION('',(0.999999999999999,0.,0.));
#608=DIRECTION('',(-1.,0.,0.));
#609=DIRECTION('',(0.,0.,1.));
#610=DIRECTION('',(-1.,0.,0.));
#611=DIRECTION('',(0.,1.,0.));
#612=DIRECTION('',(0.,0.,1.));
#613=DIRECTION('',(0.,0.,-1.));
#614=DIRECTION('',(1.,2.16840434497101E-016,0.));
#615=DIRECTION('',(0.,0.,1.));
#616=DIRECTION('',(0.,0.,-1.));
#617=DIRECTION('',(1.,2.16840434497101E-016,0.));
#618=DIRECTION('',(0.,0.,1.));
#619=DIRECTION('',(1.,0.,0.));
#620=DIRECTION('',(0.,1.,0.));
#621=DIRECTION('',(0.,0.,1.));
#622=DIRECTION('',(0.,1.,0.));
#623=DIRECTION('',(1.,0.,0.));
#624=DIRECTION('',(0.,0.,-1.));
#625=DIRECTION('',(0.,0.,1.));
#626=DIRECTION('',(1.,0.,0.));
#627=DIRECTION('',(0.,0.,1.));
#628=DIRECTION('',(1.,0.,0.));
#629=DIRECTION('',(0.,0.,1.));
#630=DIRECTION('',(1.,0.,0.));
#631=DIRECTION('',(0.,0.,1.));
#632=DIRECTION('',(1.,0.,0.));
#633=DIRECTION('',(0.,0.,1.));
#634=DIRECTION('',(1.,0.,0.));
#635=CARTESIAN_POINT('',(0.,0.,0.));
#636=CARTESIAN_POINT('',(-15.4,44.6,0.));
#637=CARTESIAN_POINT('',(-25.4,2.,0.));
#638=CARTESIAN_POINT('',(25.4,2.,0.));
#639=CARTESIAN_POINT('',(18.3,1.,0.));
#640=CARTESIAN_POINT('',(-17.8,4.5,0.));
#641=CARTESIAN_POINT('',(-18.3,1.,0.));
#642=CARTESIAN_POINT('',(-23.4,4.44089209850063E-016,0.));
#643=CARTESIAN_POINT('',(19.3,-2.22044604925031E-016,0.));
#644=CARTESIAN_POINT('',(-19.3,1.,0.));
#645=CARTESIAN_POINT('',(19.3,1.,0.));
#646=CARTESIAN_POINT('',(23.4,2.,0.));
#647=CARTESIAN_POINT('',(-23.4,2.,0.));
#648=CARTESIAN_POINT('',(-17.8,4.,0.));
#649=CARTESIAN_POINT('',(17.8,4.,0.));
#650=CARTESIAN_POINT('',(15.4,34.6,0.));
#651=CARTESIAN_POINT('',(-15.4,34.6,0.));
#652=CARTESIAN_POINT('',(17.8,4.5,1.5));
#653=CARTESIAN_POINT('',(17.8,4.5,1.5));
#654=CARTESIAN_POINT('',(-17.8,4.5,1.5));
#655=CARTESIAN_POINT('',(-17.8,4.5,0.));
#656=CARTESIAN_POINT('',(-17.8,4.5,0.));
#657=CARTESIAN_POINT('',(17.8,4.5,0.));
#658=CARTESIAN_POINT('',(17.8,4.5,0.));
#659=CARTESIAN_POINT('',(17.8,4.5,0.));
#660=CARTESIAN_POINT('',(17.8,4.5,0.));
#661=CARTESIAN_POINT('',(-17.8,4.,1.5));
#662=CARTESIAN_POINT('',(-18.3,4.,1.5));
#663=CARTESIAN_POINT('',(-18.3,4.,0.));
#664=CARTESIAN_POINT('',(-18.3,4.,0.));
#665=CARTESIAN_POINT('',(-17.8,4.,0.));
#666=CARTESIAN_POINT('',(-17.8,4.,0.));
#667=CARTESIAN_POINT('',(-18.3,4.,1.5));
#668=CARTESIAN_POINT('',(-18.3,1.,1.5));
#669=CARTESIAN_POINT('',(-18.3,1.,0.));
#670=CARTESIAN_POINT('',(-18.3,1.,0.));
#671=CARTESIAN_POINT('',(-18.3,4.,0.));
#672=CARTESIAN_POINT('',(-18.3,4.,0.));
#673=CARTESIAN_POINT('',(-19.3,1.,1.5));
#674=CARTESIAN_POINT('',(-19.3,0.,1.5));
#675=CARTESIAN_POINT('',(-19.3,0.,0.));
#676=CARTESIAN_POINT('',(-19.3,0.,0.));
#677=CARTESIAN_POINT('',(-19.3,1.,0.));
#678=CARTESIAN_POINT('',(-19.3,1.,0.));
#679=CARTESIAN_POINT('',(-19.3,-2.22044604925031E-016,1.5));
#680=CARTESIAN_POINT('',(-23.4,4.44089209850063E-016,1.5));
#681=CARTESIAN_POINT('',(-23.4,4.44089209850063E-016,0.));
#682=CARTESIAN_POINT('',(-23.4,4.44089209850063E-016,0.));
#683=CARTESIAN_POINT('',(-19.3,-2.22044604925031E-016,0.));
#684=CARTESIAN_POINT('',(-19.3,-2.22044604925031E-016,0.));
#685=CARTESIAN_POINT('',(-23.4,2.,1.5));
#686=CARTESIAN_POINT('',(-25.4,2.,1.5));
#687=CARTESIAN_POINT('',(-25.4,2.,0.));
#688=CARTESIAN_POINT('',(-25.4,2.,0.));
#689=CARTESIAN_POINT('',(-23.4,2.,0.));
#690=CARTESIAN_POINT('',(-23.4,2.,0.));
#691=CARTESIAN_POINT('',(-25.4,2.,1.5));
#692=CARTESIAN_POINT('',(-25.4,34.6,1.5));
#693=CARTESIAN_POINT('',(-25.4,34.6,0.));
#694=CARTESIAN_POINT('',(-25.4,34.6,0.));
#695=CARTESIAN_POINT('',(-25.4,2.,0.));
#696=CARTESIAN_POINT('',(-25.4,2.,0.));
#697=CARTESIAN_POINT('',(-15.4,34.6,1.5));
#698=CARTESIAN_POINT('',(-15.4,44.6,1.5));
#699=CARTESIAN_POINT('',(-15.4,44.6,0.));
#700=CARTESIAN_POINT('',(-15.4,44.6,0.));
#701=CARTESIAN_POINT('',(-15.4,34.6,0.));
#702=CARTESIAN_POINT('',(-15.4,34.6,0.));
#703=CARTESIAN_POINT('',(-15.4,44.6,1.5));
#704=CARTESIAN_POINT('',(15.4,44.6,1.5));
#705=CARTESIAN_POINT('',(15.4,44.6,0.));
#706=CARTESIAN_POINT('',(15.4,44.6,0.));
#707=CARTESIAN_POINT('',(-15.4,44.6,0.));
#708=CARTESIAN_POINT('',(-15.4,44.6,0.));
#709=CARTESIAN_POINT('',(15.4,34.6,1.5));
#710=CARTESIAN_POINT('',(25.4,34.6,1.5));
#711=CARTESIAN_POINT('',(25.4,34.6,0.));
#712=CARTESIAN_POINT('',(25.4,34.6,0.));
#713=CARTESIAN_POINT('',(15.4,34.6,0.));
#714=CARTESIAN_POINT('',(15.4,34.6,0.));
#715=CARTESIAN_POINT('',(25.4,34.6,1.5));
#716=CARTESIAN_POINT('',(25.4,2.,1.5));
#717=CARTESIAN_POINT('',(25.4,2.,0.));
#718=CARTESIAN_POINT('',(25.4,2.,0.));
#719=CARTESIAN_POINT('',(25.4,34.6,0.));
#720=CARTESIAN_POINT('',(25.4,34.6,0.));
#721=CARTESIAN_POINT('',(23.4,2.,1.5));
#722=CARTESIAN_POINT('',(23.4,-8.67361737988404E-016,1.5));
#723=CARTESIAN_POINT('',(23.4,-8.67361737988404E-016,0.));
#724=CARTESIAN_POINT('',(23.4,-8.67361737988404E-016,0.));
#725=CARTESIAN_POINT('',(23.4,2.,0.));
#726=CARTESIAN_POINT('',(23.4,2.,0.));
#727=CARTESIAN_POINT('',(23.4,-2.22044604925031E-016,1.5));
#728=CARTESIAN_POINT('',(19.3,-2.22044604925031E-016,1.5));
#729=CARTESIAN_POINT('',(19.3,-2.22044604925031E-016,0.));
#730=CARTESIAN_POINT('',(19.3,-2.22044604925031E-016,0.));
#731=CARTESIAN_POINT('',(23.4,-2.22044604925031E-016,0.));
#732=CARTESIAN_POINT('',(23.4,-2.22044604925031E-016,0.));
#733=CARTESIAN_POINT('',(19.3,1.,1.5));
#734=CARTESIAN_POINT('',(18.3,0.999999999999999,1.5));
#735=CARTESIAN_POINT('',(18.3,0.999999999999999,0.));
#736=CARTESIAN_POINT('',(18.3,0.999999999999999,0.));
#737=CARTESIAN_POINT('',(19.3,1.,0.));
#738=CARTESIAN_POINT('',(19.3,1.,0.));
#739=CARTESIAN_POINT('',(18.3,1.,1.5));
#740=CARTESIAN_POINT('',(18.3,4.,1.5));
#741=CARTESIAN_POINT('',(18.3,4.,0.));
#742=CARTESIAN_POINT('',(18.3,4.,0.));
#743=CARTESIAN_POINT('',(18.3,1.,0.));
#744=CARTESIAN_POINT('',(18.3,1.,0.));
#745=CARTESIAN_POINT('',(17.8,4.,1.5));
#746=CARTESIAN_POINT('',(17.8,4.,0.));
#747=CARTESIAN_POINT('',(17.8,4.,0.));
#748=CARTESIAN_POINT('',(-17.8,4.,0.));
#749=CARTESIAN_POINT('',(-17.8,4.,1.5));
#750=(
GEOMETRIC_REPRESENTATION_CONTEXT(3)
GLOBAL_UNCERTAINTY_ASSIGNED_CONTEXT((#751))
GLOBAL_UNIT_ASSIGNED_CONTEXT((#757,#753,#752))
REPRESENTATION_CONTEXT('tw_ex_2','TOP_LEVEL_ASSEMBLY_PART')
);
#751=UNCERTAINTY_MEASURE_WITH_UNIT(LENGTH_MEASURE(2.E-005),#757,
'DISTANCE_ACCURACY_VALUE','Maximum Tolerance applied to model');
#752=(
NAMED_UNIT(*)
SI_UNIT($,.STERADIAN.)
SOLID_ANGLE_UNIT()
);
#753=(
CONVERSION_BASED_UNIT('DEGREE',#755)
NAMED_UNIT(#754)
PLANE_ANGLE_UNIT()
);
#754=DIMENSIONAL_EXPONENTS(0.,0.,0.,0.,0.,0.,0.);
#755=PLANE_ANGLE_MEASURE_WITH_UNIT(PLANE_ANGLE_MEASURE(0.0174532925),#756);
#756=(
NAMED_UNIT(*)
PLANE_ANGLE_UNIT()
SI_UNIT($,.RADIAN.)
);
#757=(
LENGTH_UNIT()
NAMED_UNIT(*)
SI_UNIT(.MILLI.,.METRE.)
);
ENDSEC;
END-ISO-10303-21;
